  0
SECTION
  2
HEADER
  9
$ACADVER
  1
AC1027
  9
$ACADMAINTVER
 70
     8
  9
$DWGCODEPAGE
  3
ANSI_1252
  9
$REQUIREDVERSIONS
160
                 0
  9
$LASTSAVEDBY
  1
Tuomas
  9
$INSBASE
 10
0.0
 20
0.0
 30
0.0
  9
$EXTMIN
 10
275.9707819925063
 20
-3805.0
 30
0.0
  9
$EXTMAX
 10
4185.293863659263
 20
631.2422836565828
 30
0.0
  9
$LIMMIN
 10
0.0
 20
0.0
  9
$LIMMAX
 10
420.0
 20
297.0
  9
$ORTHOMODE
 70
     0
  9
$REGENMODE
 70
     1
  9
$FILLMODE
 70
     1
  9
$QTEXTMODE
 70
     0
  9
$MIRRTEXT
 70
     0
  9
$LTSCALE
 40
1.0
  9
$ATTMODE
 70
     2
  9
$TEXTSIZE
 40
2.5
  9
$TRACEWID
 40
1.0
  9
$TEXTSTYLE
  7
Standard
  9
$CLAYER
  8
floor 0 routes
  9
$CELTYPE
  6
ByLayer
  9
$CECOLOR
 62
   256
  9
$CELTSCALE
 40
1.0
  9
$DISPSILH
 70
     0
  9
$DIMSCALE
 40
1.0
  9
$DIMASZ
 40
2.5
  9
$DIMEXO
 40
0.625
  9
$DIMDLI
 40
3.75
  9
$DIMRND
 40
0.0
  9
$DIMDLE
 40
0.0
  9
$DIMEXE
 40
1.25
  9
$DIMTP
 40
0.0
  9
$DIMTM
 40
0.0
  9
$DIMTXT
 40
2.5
  9
$DIMCEN
 40
2.5
  9
$DIMTSZ
 40
0.0
  9
$DIMTOL
 70
     0
  9
$DIMLIM
 70
     0
  9
$DIMTIH
 70
     0
  9
$DIMTOH
 70
     0
  9
$DIMSE1
 70
     0
  9
$DIMSE2
 70
     0
  9
$DIMTAD
 70
     1
  9
$DIMZIN
 70
     8
  9
$DIMBLK
  1

  9
$DIMASO
 70
     1
  9
$DIMSHO
 70
     1
  9
$DIMPOST
  1

  9
$DIMAPOST
  1

  9
$DIMALT
 70
     0
  9
$DIMALTD
 70
     3
  9
$DIMALTF
 40
0.03937007874016
  9
$DIMLFAC
 40
1.0
  9
$DIMTOFL
 70
     1
  9
$DIMTVP
 40
0.0
  9
$DIMTIX
 70
     0
  9
$DIMSOXD
 70
     0
  9
$DIMSAH
 70
     0
  9
$DIMBLK1
  1

  9
$DIMBLK2
  1

  9
$DIMSTYLE
  2
ISO-25
  9
$DIMCLRD
 70
     0
  9
$DIMCLRE
 70
     0
  9
$DIMCLRT
 70
     0
  9
$DIMTFAC
 40
1.0
  9
$DIMGAP
 40
0.625
  9
$DIMJUST
 70
     0
  9
$DIMSD1
 70
     0
  9
$DIMSD2
 70
     0
  9
$DIMTOLJ
 70
     0
  9
$DIMTZIN
 70
     8
  9
$DIMALTZ
 70
     0
  9
$DIMALTTZ
 70
     0
  9
$DIMUPT
 70
     0
  9
$DIMDEC
 70
     2
  9
$DIMTDEC
 70
     2
  9
$DIMALTU
 70
     2
  9
$DIMALTTD
 70
     3
  9
$DIMTXSTY
  7
Standard
  9
$DIMAUNIT
 70
     0
  9
$DIMADEC
 70
     0
  9
$DIMALTRND
 40
0.0
  9
$DIMAZIN
 70
     0
  9
$DIMDSEP
 70
    44
  9
$DIMATFIT
 70
     3
  9
$DIMFRAC
 70
     0
  9
$DIMLDRBLK
  1

  9
$DIMLUNIT
 70
     2
  9
$DIMLWD
 70
    -2
  9
$DIMLWE
 70
    -2
  9
$DIMTMOVE
 70
     0
  9
$DIMFXL
 40
1.0
  9
$DIMFXLON
 70
     0
  9
$DIMJOGANG
 40
0.7853981633974483
  9
$DIMTFILL
 70
     0
  9
$DIMTFILLCLR
 70
     0
  9
$DIMARCSYM
 70
     0
  9
$DIMLTYPE
  6

  9
$DIMLTEX1
  6

  9
$DIMLTEX2
  6

  9
$DIMTXTDIRECTION
 70
     0
  9
$LUNITS
 70
     2
  9
$LUPREC
 70
     3
  9
$SKETCHINC
 40
1.0
  9
$FILLETRAD
 40
10.0
  9
$AUNITS
 70
     0
  9
$AUPREC
 70
     0
  9
$MENU
  1
.
  9
$ELEVATION
 40
0.0
  9
$PELEVATION
 40
0.0
  9
$THICKNESS
 40
0.0
  9
$LIMCHECK
 70
     0
  9
$CHAMFERA
 40
10.0
  9
$CHAMFERB
 40
10.0
  9
$CHAMFERC
 40
20.0
  9
$CHAMFERD
 40
0.0
  9
$SKPOLY
 70
     0
  9
$TDCREATE
 40
2455022.720692847
  9
$TDUCREATE
 40
2455022.637359514
  9
$TDUPDATE
 40
2457049.475617546
  9
$TDUUPDATE
 40
2457049.392284213
  9
$TDINDWG
 40
2.2831420486
  9
$TDUSRTIMER
 40
2457049.301352662
  9
$USRTIMER
 70
     1
  9
$ANGBASE
 50
0.0
  9
$ANGDIR
 70
     0
  9
$PDMODE
 70
     0
  9
$PDSIZE
 40
0.0
  9
$PLINEWID
 40
1.0
  9
$SPLFRAME
 70
     0
  9
$SPLINETYPE
 70
     6
  9
$SPLINESEGS
 70
     8
  9
$HANDSEED
  5
28C8
  9
$SURFTAB1
 70
     6
  9
$SURFTAB2
 70
     6
  9
$SURFTYPE
 70
     6
  9
$SURFU
 70
     6
  9
$SURFV
 70
     6
  9
$UCSBASE
  2

  9
$UCSNAME
  2

  9
$UCSORG
 10
0.0
 20
0.0
 30
0.0
  9
$UCSXDIR
 10
1.0
 20
0.0
 30
0.0
  9
$UCSYDIR
 10
0.0
 20
1.0
 30
0.0
  9
$UCSORTHOREF
  2

  9
$UCSORTHOVIEW
 70
     0
  9
$UCSORGTOP
 10
0.0
 20
0.0
 30
0.0
  9
$UCSORGBOTTOM
 10
0.0
 20
0.0
 30
0.0
  9
$UCSORGLEFT
 10
0.0
 20
0.0
 30
0.0
  9
$UCSORGRIGHT
 10
0.0
 20
0.0
 30
0.0
  9
$UCSORGFRONT
 10
0.0
 20
0.0
 30
0.0
  9
$UCSORGBACK
 10
0.0
 20
0.0
 30
0.0
  9
$PUCSBASE
  2

  9
$PUCSNAME
  2

  9
$PUCSORG
 10
0.0
 20
0.0
 30
0.0
  9
$PUCSXDIR
 10
1.0
 20
0.0
 30
0.0
  9
$PUCSYDIR
 10
0.0
 20
1.0
 30
0.0
  9
$PUCSORTHOREF
  2

  9
$PUCSORTHOVIEW
 70
     0
  9
$PUCSORGTOP
 10
0.0
 20
0.0
 30
0.0
  9
$PUCSORGBOTTOM
 10
0.0
 20
0.0
 30
0.0
  9
$PUCSORGLEFT
 10
0.0
 20
0.0
 30
0.0
  9
$PUCSORGRIGHT
 10
0.0
 20
0.0
 30
0.0
  9
$PUCSORGFRONT
 10
0.0
 20
0.0
 30
0.0
  9
$PUCSORGBACK
 10
0.0
 20
0.0
 30
0.0
  9
$USERI1
 70
     0
  9
$USERI2
 70
     0
  9
$USERI3
 70
     0
  9
$USERI4
 70
     0
  9
$USERI5
 70
     0
  9
$USERR1
 40
0.0
  9
$USERR2
 40
0.0
  9
$USERR3
 40
0.0
  9
$USERR4
 40
0.0
  9
$USERR5
 40
0.0
  9
$WORLDVIEW
 70
     1
  9
$SHADEDGE
 70
     3
  9
$SHADEDIF
 70
    70
  9
$TILEMODE
 70
     1
  9
$MAXACTVP
 70
    64
  9
$PINSBASE
 10
0.0
 20
0.0
 30
0.0
  9
$PLIMCHECK
 70
     0
  9
$PEXTMIN
 10
1.000000000000000E+20
 20
1.000000000000000E+20
 30
1.000000000000000E+20
  9
$PEXTMAX
 10
-1.000000000000000E+20
 20
-1.000000000000000E+20
 30
-1.000000000000000E+20
  9
$PLIMMIN
 10
0.0
 20
0.0
  9
$PLIMMAX
 10
0.0
 20
0.0
  9
$UNITMODE
 70
     0
  9
$VISRETAIN
 70
     1
  9
$PLINEGEN
 70
     0
  9
$PSLTSCALE
 70
     1
  9
$TREEDEPTH
 70
  3020
  9
$CMLSTYLE
  2
Standard
  9
$CMLJUST
 70
     0
  9
$CMLSCALE
 40
20.0
  9
$PROXYGRAPHICS
 70
     1
  9
$MEASUREMENT
 70
     1
  9
$CELWEIGHT
370
    -1
  9
$ENDCAPS
280
     0
  9
$JOINSTYLE
280
     0
  9
$LWDISPLAY
290
     0
  9
$INSUNITS
 70
     4
  9
$HYPERLINKBASE
  1

  9
$STYLESHEET
  1

  9
$XEDIT
290
     1
  9
$CEPSNTYPE
380
     0
  9
$PSTYLEMODE
290
     1
  9
$FINGERPRINTGUID
  2
{EC6BB858-51AA-46EC-B484-6C9CC7AB3E2E}
  9
$VERSIONGUID
  2
{FAEB1C32-E019-11D5-929B-00C0DF256EC4}
  9
$EXTNAMES
290
     1
  9
$PSVPSCALE
 40
0.0
  9
$OLESTARTUP
290
     0
  9
$SORTENTS
280
   127
  9
$INDEXCTL
280
     0
  9
$HIDETEXT
280
     1
  9
$XCLIPFRAME
280
     0
  9
$HALOGAP
280
     0
  9
$OBSCOLOR
 70
   257
  9
$OBSLTYPE
280
     0
  9
$INTERSECTIONDISPLAY
280
     0
  9
$INTERSECTIONCOLOR
 70
   257
  9
$DIMASSOC
280
     2
  9
$PROJECTNAME
  1

  9
$CAMERADISPLAY
290
     0
  9
$LENSLENGTH
 40
50.0
  9
$CAMERAHEIGHT
 40
0.0
  9
$STEPSPERSEC
 40
2.0
  9
$STEPSIZE
 40
6.0
  9
$3DDWFPREC
 40
2.0
  9
$PSOLWIDTH
 40
5.0
  9
$PSOLHEIGHT
 40
80.0
  9
$LOFTANG1
 40
1.570796326794897
  9
$LOFTANG2
 40
1.570796326794897
  9
$LOFTMAG1
 40
0.0
  9
$LOFTMAG2
 40
0.0
  9
$LOFTPARAM
 70
     7
  9
$LOFTNORMALS
280
     1
  9
$LATITUDE
 40
37.795
  9
$LONGITUDE
 40
-122.394
  9
$NORTHDIRECTION
 40
0.0
  9
$TIMEZONE
 70
 -8000
  9
$LIGHTGLYPHDISPLAY
280
     1
  9
$TILEMODELIGHTSYNCH
280
     1
  9
$SOLIDHIST
280
     1
  9
$SHOWHIST
280
     1
  9
$DWFFRAME
280
     2
  9
$DGNFRAME
280
     2
  9
$REALWORLDSCALE
290
     1
  9
$INTERFERECOLOR
 62
   256
  9
$CSHADOW
280
     0
  9
$SHADOWPLANELOCATION
 40
0.0
  0
ENDSEC
  0
SECTION
  2
CLASSES
  0
CLASS
  1
ACDBDICTIONARYWDFLT
  2
AcDbDictionaryWithDefault
  3
ObjectDBX Classes
 90
        0
 91
        5
280
     0
281
     0
  0
CLASS
  1
VISUALSTYLE
  2
AcDbVisualStyle
  3
ObjectDBX Classes
 90
     4095
 91
        5
280
     0
281
     0
  0
CLASS
  1
TABLESTYLE
  2
AcDbTableStyle
  3
ObjectDBX Classes
 90
     4095
 91
        5
280
     0
281
     0
  0
CLASS
  1
DICTIONARYVAR
  2
AcDbDictionaryVar
  3
ObjectDBX Classes
 90
        0
 91
        4
280
     0
281
     0
  0
CLASS
  1
SCALE
  2
AcDbScale
  3
ObjectDBX Classes
 90
     1153
 91
        5
280
     0
281
     0
  0
CLASS
  1
CELLSTYLEMAP
  2
AcDbCellStyleMap
  3
ObjectDBX Classes
 90
     1152
 91
        4
280
     0
281
     0
  0
CLASS
  1
RASTERVARIABLES
  2
AcDbRasterVariables
  3
ISM
 90
        0
 91
        5
280
     0
281
     0
  0
CLASS
  1
MATERIAL
  2
AcDbMaterial
  3
ObjectDBX Classes
 90
     1153
 91
        5
280
     0
281
     0
  0
CLASS
  1
SUN
  2
AcDbSun
  3
SCENEOE
 90
     1153
 91
        5
280
     0
281
     0
  0
CLASS
  1
MLEADERSTYLE
  2
AcDbMLeaderStyle
  3
ACDB_MLEADERSTYLE_CLASS
 90
     4095
 91
        4
280
     0
281
     0
  0
CLASS
  1
IMAGEDEF
  2
AcDbRasterImageDef
  3
ISM
 90
        0
 91
        4
280
     0
281
     0
  0
CLASS
  1
IMAGE
  2
AcDbRasterImage
  3
ISM
 90
      127
 91
        5
280
     0
281
     1
  0
CLASS
  1
IMAGEDEF_REACTOR
  2
AcDbRasterImageDefReactor
  3
ISM
 90
        1
 91
        4
280
     0
281
     0
  0
CLASS
  1
SORTENTSTABLE
  2
AcDbSortentsTable
  3
ObjectDBX Classes
 90
        0
 91
        4
280
     0
281
     0
  0
ENDSEC
  0
SECTION
  2
TABLES
  0
TABLE
  2
VPORT
  5
8
330
0
100
AcDbSymbolTable
 70
     1
  0
VPORT
  5
29
330
8
100
AcDbSymbolTableRecord
100
AcDbViewportTableRecord
  2
*Active
 70
     0
 10
0.0
 20
0.0
 11
1.0
 21
1.0
 12
2660.198993209507
 22
-1049.091615082713
 13
0.0
 23
0.0
 14
5.0
 24
5.0
 15
300.0
 25
300.0
 16
0.0
 26
0.0
 36
1.0
 17
-134.1869158878562
 27
0.0
 37
0.0
 40
3142.533704444934
 41
1.776271186440678
 42
50.0
 43
0.0
 44
0.0
 50
0.0
 51
0.0
 71
    16
 72
  1000
 73
     1
 74
     3
 75
     1
 76
     1
 77
     0
 78
     0
281
     0
 65
     1
110
0.0
120
0.0
130
0.0
111
1.0
121
0.0
131
0.0
112
0.0
122
1.0
132
0.0
 79
     0
146
0.0
348
2F
 60
     3
 61
     5
292
     1
282
     1
141
0.0
142
0.0
 63
   256
361
80
  0
ENDTAB
  0
TABLE
  2
LTYPE
  5
5
330
0
100
AcDbSymbolTable
 70
     1
  0
LTYPE
  5
14
330
5
100
AcDbSymbolTableRecord
100
AcDbLinetypeTableRecord
  2
ByBlock
 70
     0
  3

 72
    65
 73
     0
 40
0.0
  0
LTYPE
  5
15
330
5
100
AcDbSymbolTableRecord
100
AcDbLinetypeTableRecord
  2
ByLayer
 70
     0
  3
Solid line
 72
    65
 73
     0
 40
0.0
  0
LTYPE
  5
16
330
5
100
AcDbSymbolTableRecord
100
AcDbLinetypeTableRecord
  2
Continuous
 70
     0
  3
Solid line
 72
    65
 73
     0
 40
0.0
  0
ENDTAB
  0
TABLE
  2
LAYER
  5
2
102
{ACAD_XDICTIONARY
360
B8
102
}
330
0
100
AcDbSymbolTable
 70
    25
  0
LAYER
  5
10
330
2
100
AcDbSymbolTableRecord
100
AcDbLayerTableRecord
  2
0
 70
     0
 62
    -7
  6
Continuous
370
    -3
390
F
347
75
348
0
  0
LAYER
  5
C1
330
2
100
AcDbSymbolTableRecord
100
AcDbLayerTableRecord
  2
floor 0 walls
 70
     0
 62
   215
  6
Continuous
370
    -3
390
F
347
75
348
0
1001
AcAecLayerStandard
1000

1000

  0
LAYER
  5
9C2
330
2
100
AcDbSymbolTableRecord
100
AcDbLayerTableRecord
  2
floor 1 walls
 70
     0
 62
   220
  6
Continuous
370
    -3
390
F
347
75
348
0
1001
AcAecLayerStandard
1000

1000

  0
LAYER
  5
C5A
330
2
100
AcDbSymbolTableRecord
100
AcDbLayerTableRecord
  2
floor 2 walls
 70
     0
 62
   230
  6
Continuous
370
    -3
390
F
347
75
348
0
1001
AcAecLayerStandard
1000

1000

  0
LAYER
  5
C5B
330
2
100
AcDbSymbolTableRecord
100
AcDbLayerTableRecord
  2
floor 3 walls
 70
     0
 62
   190
  6
Continuous
370
    -3
390
F
347
75
348
0
1001
AcAecLayerStandard
1000

1000

  0
LAYER
  5
C70
330
2
100
AcDbSymbolTableRecord
100
AcDbLayerTableRecord
  2
ref image floor 1
 70
     0
 62
    -7
  6
Continuous
370
    -3
390
F
347
75
348
0
1001
AcAecLayerStandard
1000

1000

  0
LAYER
  5
C71
330
2
100
AcDbSymbolTableRecord
100
AcDbLayerTableRecord
  2
ref image floor 2
 70
     0
 62
    -7
  6
Continuous
370
    -3
390
F
347
75
348
0
1001
AcAecLayerStandard
1000

1000

  0
LAYER
  5
C72
330
2
100
AcDbSymbolTableRecord
100
AcDbLayerTableRecord
  2
ref image floor 3
 70
     0
 62
    -7
  6
Continuous
370
    -3
390
F
347
75
348
0
1001
AcAecLayerStandard
1000

1000

  0
LAYER
  5
E36
330
2
100
AcDbSymbolTableRecord
100
AcDbLayerTableRecord
  2
floor 0 zones
 70
     0
 62
     2
  6
Continuous
370
    -3
390
F
347
75
348
0
1001
AcAecLayerStandard
1000

1000

  0
LAYER
  5
E37
330
2
100
AcDbSymbolTableRecord
100
AcDbLayerTableRecord
  2
floor 1 zones
 70
     0
 62
     2
  6
Continuous
370
    -3
390
F
347
75
348
0
1001
AcAecLayerStandard
1000

1000

  0
LAYER
  5
E38
330
2
100
AcDbSymbolTableRecord
100
AcDbLayerTableRecord
  2
floor 3 zones
 70
     0
 62
     7
  6
Continuous
370
    -3
390
F
347
75
348
0
1001
AcAecLayerStandard
1000

1000

  0
LAYER
  5
E9A
330
2
100
AcDbSymbolTableRecord
100
AcDbLayerTableRecord
  2
floor 1 beacons
 70
     0
 62
     7
  6
Continuous
370
    -3
390
F
347
75
348
0
1001
AcAecLayerStandard
1000

1000

  0
LAYER
  5
EA2
330
2
100
AcDbSymbolTableRecord
100
AcDbLayerTableRecord
  2
floor 1 gps
 70
     0
 62
     5
  6
Continuous
370
    -3
390
F
347
75
348
0
1001
AcAecLayerStandard
1000

1000

  0
LAYER
  5
EA3
330
2
100
AcDbSymbolTableRecord
100
AcDbLayerTableRecord
  2
floor 0 gps
 70
     0
 62
     5
  6
Continuous
370
    -3
390
F
347
75
348
0
1001
AcAecLayerStandard
1000

1000

  0
LAYER
  5
EA4
330
2
100
AcDbSymbolTableRecord
100
AcDbLayerTableRecord
  2
floor 2 gps
 70
     0
 62
     5
  6
Continuous
370
    -3
390
F
347
75
348
0
1001
AcAecLayerStandard
1000

1000

  0
LAYER
  5
EA5
330
2
100
AcDbSymbolTableRecord
100
AcDbLayerTableRecord
  2
floor 3 gps
 70
     0
 62
     5
  6
Continuous
370
    -3
390
F
347
75
348
0
1001
AcAecLayerStandard
1000

1000

  0
LAYER
  5
FFA
330
2
100
AcDbSymbolTableRecord
100
AcDbLayerTableRecord
  2
floor 1 keepouts
 70
     0
 62
   230
  6
Continuous
370
    -3
390
F
347
75
348
0
1001
AcAecLayerStandard
1000

1000

  0
LAYER
  5
FFB
330
2
100
AcDbSymbolTableRecord
100
AcDbLayerTableRecord
  2
floor 0 keepouts
 70
     0
 62
   230
  6
Continuous
370
    -3
390
F
347
75
348
0
1001
AcAecLayerStandard
1000

1000

  0
LAYER
  5
FFC
330
2
100
AcDbSymbolTableRecord
100
AcDbLayerTableRecord
  2
floor 2 keepouts
 70
     0
 62
   230
  6
Continuous
370
    -3
390
F
347
75
348
0
1001
AcAecLayerStandard
1000

1000

  0
LAYER
  5
FFD
330
2
100
AcDbSymbolTableRecord
100
AcDbLayerTableRecord
  2
floor 3 keepouts
 70
     0
 62
   230
  6
Continuous
370
    -3
390
F
347
75
348
0
1001
AcAecLayerStandard
1000

1000

  0
LAYER
  5
182C
330
2
100
AcDbSymbolTableRecord
100
AcDbLayerTableRecord
  2
floor 1 routes
 70
     0
 62
     4
  6
Continuous
370
    -3
390
F
347
75
348
0
1001
AcAecLayerStandard
1000

1000

  0
LAYER
  5
20B2
330
2
100
AcDbSymbolTableRecord
100
AcDbLayerTableRecord
  2
floor 0 beacons
 70
     0
 62
     7
  6
Continuous
370
    -3
390
F
347
75
348
0
1001
AcAecLayerStandard
1000

1000

  0
LAYER
  5
2237
330
2
100
AcDbSymbolTableRecord
100
AcDbLayerTableRecord
  2
floor 0 routes
 70
     0
 62
     4
  6
Continuous
370
    -3
390
F
347
75
348
0
1001
AcAecLayerStandard
1000

1000

  0
LAYER
  5
23DB
330
2
100
AcDbSymbolTableRecord
100
AcDbLayerTableRecord
  2
floor 3 beacons
 70
     0
 62
     7
  6
Continuous
370
    -3
390
F
347
75
348
0
1001
AcAecLayerStandard
1000

1000

  0
LAYER
  5
27A9
330
2
100
AcDbSymbolTableRecord
100
AcDbLayerTableRecord
  2
floor 3 routes
 70
     0
 62
     4
  6
Continuous
370
    -3
390
F
347
75
348
0
1001
AcAecLayerStandard
1000

1000

  0
ENDTAB
  0
TABLE
  2
STYLE
  5
3
330
0
100
AcDbSymbolTable
 70
     1
  0
STYLE
  5
11
330
3
100
AcDbSymbolTableRecord
100
AcDbTextStyleTableRecord
  2
Standard
 70
     0
 40
0.0
 41
1.0
 50
0.0
 71
     0
 42
2.5
  3
arial.ttf
  4

1001
ACAD
1000
Arial
1071
        0
  0
ENDTAB
  0
TABLE
  2
VIEW
  5
6
330
0
100
AcDbSymbolTable
 70
     0
  0
ENDTAB
  0
TABLE
  2
UCS
  5
7
330
0
100
AcDbSymbolTable
 70
     0
  0
ENDTAB
  0
TABLE
  2
APPID
  5
9
330
0
100
AcDbSymbolTable
 70
     3
  0
APPID
  5
12
330
9
100
AcDbSymbolTableRecord
100
AcDbRegAppTableRecord
  2
ACAD
 70
     0
  0
APPID
  5
C2
330
9
100
AcDbSymbolTableRecord
100
AcDbRegAppTableRecord
  2
AcAecLayerStandard
 70
     0
  0
APPID
  5
E94
330
9
100
AcDbSymbolTableRecord
100
AcDbRegAppTableRecord
  2
PE_URL
 70
     0
  0
ENDTAB
  0
TABLE
  2
DIMSTYLE
  5
A
330
0
100
AcDbSymbolTable
 70
     1
100
AcDbDimStyleTable
  0
DIMSTYLE
105
27
330
A
100
AcDbSymbolTableRecord
100
AcDbDimStyleTableRecord
  2
ISO-25
 70
     0
 41
2.5
 42
0.625
 43
3.75
 44
1.25
 73
     0
 74
     0
 77
     1
 78
     8
140
2.5
141
2.5
143
0.03937007874016
147
0.625
171
     3
172
     1
178
     0
271
     2
272
     2
274
     3
278
    44
283
     0
284
     8
340
11
  0
ENDTAB
  0
TABLE
  2
BLOCK_RECORD
  5
1
330
0
100
AcDbSymbolTable
 70
    30
  0
BLOCK_RECORD
  5
1F
102
{ACAD_XDICTIONARY
360
C82
102
}
330
1
100
AcDbSymbolTableRecord
100
AcDbBlockTableRecord
  2
*Model_Space
340
22
 70
     0
280
     1
281
     0
  0
BLOCK_RECORD
  5
1B
330
1
100
AcDbSymbolTableRecord
100
AcDbBlockTableRecord
  2
*Paper_Space
340
1E
 70
     0
280
     1
281
     0
  0
BLOCK_RECORD
  5
23
330
1
100
AcDbSymbolTableRecord
100
AcDbBlockTableRecord
  2
*Paper_Space0
340
26
 70
     0
280
     1
281
     0
  0
ENDTAB
  0
ENDSEC
  0
SECTION
  2
BLOCKS
  0
BLOCK
  5
20
330
1F
100
AcDbEntity
  8
0
100
AcDbBlockBegin
  2
*Model_Space
 70
     0
 10
0.0
 20
0.0
 30
0.0
  3
*Model_Space
  1
*Model_Space
  0
ENDBLK
  5
21
330
1F
100
AcDbEntity
  8
0
100
AcDbBlockEnd
  0
BLOCK
  5
1C
330
1B
100
AcDbEntity
 67
     1
  8
0
100
AcDbBlockBegin
  2
*Paper_Space
 70
     0
 10
0.0
 20
0.0
 30
0.0
  3
*Paper_Space
  1
*Paper_Space
  0
ENDBLK
  5
1D
330
1B
100
AcDbEntity
 67
     1
  8
0
100
AcDbBlockEnd
  0
BLOCK
  5
24
330
23
100
AcDbEntity
  8
0
100
AcDbBlockBegin
  2
*Paper_Space0
 70
     0
 10
0.0
 20
0.0
 30
0.0
  3
*Paper_Space0
  1
*Paper_Space0
  0
ENDBLK
  5
25
330
23
100
AcDbEntity
  8
0
100
AcDbBlockEnd
  0
ENDSEC
  0
SECTION
  2
ENTITIES
  0
IMAGE
  5
BD
330
1F
100
AcDbEntity
  8
0
160
               140
310
8C000000010000008400000006000000050000002CCCB94957637E40EA6FD3BED87D75C00000000000000000A4BDB7A1A473AF40EA6FD3BED87D75C00000000000000000A4BDB7A1A473AF404E06DCA7A0EF824000000000000000002CCCB94957637E404E06DCA7A0EF824000000000000000002CCCB94957637E40EA6FD3
310
BED87D75C00000000000000000
100
AcDbRasterImage
 90
        0
 10
486.2088105447499
 20
-343.865416360785
 30
0.0
 11
1.708307304905247
 21
0.0
 31
0.0
 12
0.0
 22
1.708307304905248
 32
0.0
 13
2072.0
 23
556.0
340
BC
 70
     7
280
     0
281
    50
282
    50
283
     0
360
BE
 71
     1
 91
        2
 14
-0.5
 24
-0.5
 14
2071.5
 24
555.5
290
     0
  0
LWPOLYLINE
  5
C9
330
1F
100
AcDbEntity
  8
floor 0 walls
100
AcDbPolyline
 90
        3
 70
     0
 43
1.0
 10
3570.0
 20
529.9999999999999
 10
3570.0
 20
399.9999999999999
 10
3540.0
 20
399.9999999999999
  0
LWPOLYLINE
  5
CA
330
1F
100
AcDbEntity
  8
floor 0 walls
100
AcDbPolyline
 90
        3
 70
     0
 43
1.0
 10
3570.0
 20
529.9999999999999
 10
3450.0
 20
529.9999999999999
 10
3450.0
 20
469.9999999999999
  0
LWPOLYLINE
  5
CB
330
1F
100
AcDbEntity
  8
floor 0 walls
100
AcDbPolyline
 90
        5
 70
     0
 43
1.0
 10
3630.0
 20
529.9999999999999
 10
3820.0
 20
529.9999999999999
 10
3820.0
 20
479.9999999999999
 10
3889.999999999999
 20
479.9999999999999
 10
3889.999999999999
 20
489.9999999999999
  0
LWPOLYLINE
  5
CC
330
1F
100
AcDbEntity
  8
floor 0 walls
100
AcDbPolyline
 90
        2
 70
     0
 43
1.0
 10
3630.0
 20
529.9999999999999
 10
3630.0
 20
479.9999999999999
  0
LWPOLYLINE
  5
CD
330
1F
100
AcDbEntity
  8
floor 0 walls
100
AcDbPolyline
 90
        2
 70
     0
 43
1.0
 10
3630.0
 20
439.9999999999999
 10
3630.0
 20
399.9999999999999
  0
LWPOLYLINE
  5
CF
330
1F
100
AcDbEntity
  8
floor 0 walls
100
AcDbPolyline
 90
        2
 70
     0
 43
1.0
 10
3630.0
 20
439.9999999999999
 10
3640.0
 20
439.9999999999999
  0
LWPOLYLINE
  5
D0
330
1F
100
AcDbEntity
  8
floor 0 walls
100
AcDbPolyline
 90
        2
 70
     0
 43
1.0
 10
3670.0
 20
439.9999999999999
 10
3745.0
 20
439.9999999999999
  0
LWPOLYLINE
  5
D1
330
1F
100
AcDbEntity
  8
floor 0 walls
100
AcDbPolyline
 90
        2
 70
     0
 43
1.0
 10
3745.0
 20
399.9999999999999
 10
3744.772169486493
 20
529.9999999999999
  0
LWPOLYLINE
  5
D2
330
1F
100
AcDbEntity
  8
floor 0 walls
100
AcDbPolyline
 90
        3
 70
     0
 43
1.0
 10
3889.999999999999
 20
489.9999999999999
 10
3899.999999999999
 20
489.9999999999999
 10
3899.999999999999
 20
389.9999999999999
  0
LWPOLYLINE
  5
D7
330
1F
100
AcDbEntity
  8
floor 0 walls
100
AcDbPolyline
 90
        3
 70
     0
 43
1.0
 10
3859.999999999999
 20
399.9999999999999
 10
3839.999999999999
 20
399.9999999999999
 10
3839.999999999999
 20
479.9999999999999
  0
LWPOLYLINE
  5
D8
330
1F
100
AcDbEntity
  8
floor 0 walls
100
AcDbPolyline
 90
        4
 70
     0
 43
1.0
 10
3839.999999999999
 20
399.9999999999999
 10
3815.0
 20
399.9999999999999
 10
3815.0
 20
399.9999999999999
 10
3775.0
 20
399.9999999999999
  0
LWPOLYLINE
  5
D9
330
1F
100
AcDbEntity
  8
floor 0 walls
100
AcDbPolyline
 90
        5
 70
     0
 43
1.0
 10
3889.999999999999
 20
524.9999999999999
 10
3889.999999999999
 20
529.9999999999999
 10
3979.999999999999
 20
529.9999999999999
 10
3979.999999999999
 20
105.0
 10
3884.999999999999
 20
105.0
  0
LWPOLYLINE
  5
DA
330
1F
100
AcDbEntity
  8
floor 0 walls
100
AcDbPolyline
 90
        2
 70
     0
 43
1.0
 10
3979.999999999999
 20
165.0
 10
3929.999999999999
 20
165.0
  0
LWPOLYLINE
  5
DB
330
1F
100
AcDbEntity
  8
floor 0 walls
100
AcDbPolyline
 90
        2
 70
     0
 43
1.0
 10
3904.999999999999
 20
165.0
 10
3884.999999999999
 20
165.0
  0
LWPOLYLINE
  5
DC
330
1F
100
AcDbEntity
  8
floor 0 walls
100
AcDbPolyline
 90
        6
 70
     0
 43
1.0
 10
3830.0
 20
165.0
 10
3815.0
 20
165.0
 10
3815.0
 20
105.0
 10
3815.0
 20
-165.0
 10
3445.0
 20
-165.0
 10
3445.0
 20
-29.99999999999999
  0
LWPOLYLINE
  5
DD
330
1F
100
AcDbEntity
  8
floor 0 walls
100
AcDbPolyline
 90
        4
 70
     0
 43
1.0
 10
3445.0
 20
9.999999999999998
 10
3445.0
 20
59.99999999999999
 10
3115.0
 20
59.99999999999999
 10
3115.0
 20
15.0
  0
LWPOLYLINE
  5
DE
330
1F
100
AcDbEntity
  8
floor 0 walls
100
AcDbPolyline
 90
        4
 70
     0
 43
1.0
 10
3115.0
 20
-20.0
 10
3115.0
 20
-165.0
 10
2750.0
 20
-165.0
 10
2750.0
 20
-29.99999999999999
  0
LWPOLYLINE
  5
DF
330
1F
100
AcDbEntity
  8
floor 0 walls
100
AcDbPolyline
 90
        4
 70
     0
 43
1.0
 10
2750.0
 20
9.999999999999998
 10
2750.0
 20
59.99999999999999
 10
2425.0
 20
59.99999999999999
 10
2425.0
 20
4.999999999999999
  0
LWPOLYLINE
  5
E0
330
1F
100
AcDbEntity
  8
floor 0 walls
100
AcDbPolyline
 90
        5
 70
     0
 43
1.0
 10
2425.0
 20
-29.99999999999999
 10
2425.0
 20
-165.0
 10
2065.0
 20
-165.0
 10
2065.0
 20
165.0
 10
2220.0
 20
165.0
  0
LWPOLYLINE
  5
E1
330
1F
100
AcDbEntity
  8
floor 0 walls
100
AcDbPolyline
 90
        2
 70
     0
 43
1.0
 10
2295.0
 20
165.0
 10
2450.0
 20
165.0
  0
LWPOLYLINE
  5
E2
330
1F
100
AcDbEntity
  8
floor 0 walls
100
AcDbPolyline
 90
        2
 70
     0
 43
1.0
 10
2475.0
 20
165.0
 10
2625.0
 20
165.0
  0
LWPOLYLINE
  5
E3
330
1F
100
AcDbEntity
  8
floor 0 walls
100
AcDbPolyline
 90
        2
 70
     0
 43
1.0
 10
2650.0
 20
165.0
 10
2860.0
 20
165.0
  0
LWPOLYLINE
  5
E4
330
1F
100
AcDbEntity
  8
floor 0 walls
100
AcDbPolyline
 90
        2
 70
     0
 43
1.0
 10
3255.0
 20
165.0
 10
3405.0
 20
165.0
  0
LWPOLYLINE
  5
E5
330
1F
100
AcDbEntity
  8
floor 0 walls
100
AcDbPolyline
 90
        5
 70
     0
 43
1.0
 10
3425.0
 20
165.0
 10
3445.0
 20
165.0
 10
3455.0
 20
165.0
 10
3455.0
 20
59.99999999999999
 10
3445.0
 20
59.99999999999999
  0
LWPOLYLINE
  5
E6
330
1F
100
AcDbEntity
  8
floor 0 walls
100
AcDbPolyline
 90
        2
 70
     0
 43
1.0
 10
2065.0
 20
165.0
 10
2045.0
 20
165.0
  0
LWPOLYLINE
  5
E7
330
1F
100
AcDbEntity
  8
floor 0 walls
100
AcDbPolyline
 90
        5
 70
     0
 43
1.0
 10
1990.0
 20
165.0
 10
1975.0
 20
165.0
 10
1975.0
 20
54.99999999999999
 10
1900.0
 20
54.99999999999999
 10
1900.0
 20
165.0
  0
LWPOLYLINE
  5
E8
330
1F
100
AcDbEntity
  8
floor 0 walls
100
AcDbPolyline
 90
        2
 70
     0
 43
1.0
 10
1975.0
 20
165.0
 10
1925.0
 20
165.0
  0
LWPOLYLINE
  5
EA
330
1F
100
AcDbEntity
  8
floor 0 walls
100
AcDbPolyline
 90
        2
 70
     0
 43
1.0
 10
1900.0
 20
165.0
 10
1780.0
 20
165.0
  0
LWPOLYLINE
  5
EB
330
1F
100
AcDbEntity
  8
floor 0 walls
100
AcDbPolyline
 90
        2
 70
     0
 43
1.0
 10
1900.0
 20
54.99999999999999
 10
1735.0
 20
54.99999999999999
  0
LWPOLYLINE
  5
EC
330
1F
100
AcDbEntity
  8
floor 0 walls
100
AcDbPolyline
 90
        2
 70
     0
 43
1.0
 10
1735.0
 20
54.99999999999999
 10
1735.0
 20
4.999999999999999
  0
LWPOLYLINE
  5
ED
330
1F
100
AcDbEntity
  8
floor 0 walls
100
AcDbPolyline
 90
        4
 70
     0
 43
1.0
 10
1735.0
 20
-29.99999999999999
 10
1735.0
 20
-165.0
 10
1370.0
 20
-165.0
 10
1370.0
 20
-20.0
  0
LWPOLYLINE
  5
EE
330
1F
100
AcDbEntity
  8
floor 0 walls
100
AcDbPolyline
 90
        5
 70
     0
 43
1.0
 10
1370.0
 20
15.0
 10
1370.0
 20
59.99999999999999
 10
1380.0
 20
59.99999999999999
 10
1380.0
 20
165.0
 10
1560.0
 20
165.0
  0
LWPOLYLINE
  5
EF
330
1F
100
AcDbEntity
  8
floor 0 walls
100
AcDbPolyline
 90
        2
 70
     0
 43
1.0
 10
1600.0
 20
165.0
 10
1755.0
 20
165.0
  0
LWPOLYLINE
  5
F0
330
1F
100
AcDbEntity
  8
floor 0 walls
100
AcDbPolyline
 90
        7
 70
     0
 43
1.0
 10
1370.0
 20
59.99999999999999
 10
1040.0
 20
59.99999999999999
 10
1040.0
 20
-165.0
 10
674.9999999999999
 20
-165.0
 10
674.9999999999999
 20
165.0
 10
829.9999999999999
 20
165.0
 10
829.9999999999999
 20
94.99999999999999
  0
LWPOLYLINE
  5
F1
330
1F
100
AcDbEntity
  8
floor 0 walls
100
AcDbPolyline
 90
        2
 70
     0
 43
1.0
 10
829.9999999999999
 20
-165.0
 10
829.9999999999999
 20
-125.0
  0
LWPOLYLINE
  5
F2
330
1F
100
AcDbEntity
  8
floor 0 walls
100
AcDbPolyline
 90
        2
 70
     0
 43
1.0
 10
829.9999999999999
 20
-89.99999999999999
 10
829.9999999999999
 20
0.0
  0
LWPOLYLINE
  5
F3
330
1F
100
AcDbEntity
  8
floor 0 walls
100
AcDbPolyline
 90
        2
 70
     0
 43
1.0
 10
829.9999999999999
 20
25.0
 10
829.9999999999999
 20
74.99999999999999
  0
LWPOLYLINE
  5
F4
330
1F
100
AcDbEntity
  8
floor 0 walls
100
AcDbPolyline
 90
        2
 70
     0
 43
1.0
 10
674.9999999999999
 20
74.99999999999999
 10
829.9999999999999
 20
74.99999999999999
  0
LWPOLYLINE
  5
F5
330
1F
100
AcDbEntity
  8
floor 0 walls
100
AcDbPolyline
 90
        2
 70
     0
 43
1.0
 10
674.9999999999999
 20
-44.99999999999999
 10
829.9999999999999
 20
-44.99999999999999
  0
LWPOLYLINE
  5
F6
330
1F
100
AcDbEntity
  8
floor 0 walls
100
AcDbPolyline
 90
        2
 70
     0
 43
1.0
 10
754.9999999999999
 20
-44.99999999999999
 10
754.9999999999999
 20
-89.99999999999999
  0
LWPOLYLINE
  5
F7
330
1F
100
AcDbEntity
  8
floor 0 walls
100
AcDbPolyline
 90
        2
 70
     0
 43
1.0
 10
754.9999999999999
 20
-125.0
 10
754.1279359386225
 20
-165.0
  0
LWPOLYLINE
  5
F8
330
1F
100
AcDbEntity
  8
floor 0 walls
100
AcDbPolyline
 90
        2
 70
     0
 43
1.0
 10
1380.0
 20
165.0
 10
874.9999999999999
 20
165.0
  0
LWPOLYLINE
  5
F9
330
1F
100
AcDbEntity
  8
floor 0 walls
100
AcDbPolyline
 90
        2
 70
     0
 43
1.0
 10
1030.0
 20
165.0
 10
1030.0
 20
150.0
  0
LWPOLYLINE
  5
FA
330
1F
100
AcDbEntity
  8
floor 0 walls
100
AcDbPolyline
 90
        3
 70
     0
 43
1.0
 10
1030.0
 20
115.0
 10
1030.0
 20
59.99999999999999
 10
1040.0
 20
59.99999999999999
  0
LWPOLYLINE
  5
FB
330
1F
100
AcDbEntity
  8
floor 0 walls
100
AcDbPolyline
 90
        2
 70
     0
 43
1.0
 10
674.9999999999999
 20
105.0
 10
654.9999999999999
 20
105.0
  0
LWPOLYLINE
  5
FC
330
1F
100
AcDbEntity
  8
floor 0 walls
100
AcDbPolyline
 90
        2
 70
     0
 43
1.0
 10
599.9999999999999
 20
105.0
 10
584.9999999999999
 20
105.0
  0
LWPOLYLINE
  5
FD
330
1F
100
AcDbEntity
  8
floor 0 walls
100
AcDbPolyline
 90
        3
 70
     0
 43
1.0
 10
584.9999999999999
 20
105.0
 10
584.9999999999999
 20
165.0
 10
599.9999999999999
 20
165.0
  0
LWPOLYLINE
  5
FE
330
1F
100
AcDbEntity
  8
floor 0 walls
100
AcDbPolyline
 90
        2
 70
     0
 43
1.0
 10
674.9999999999999
 20
165.0
 10
659.9999999999999
 20
165.0
  0
LWPOLYLINE
  5
FF
330
1F
100
AcDbEntity
  8
floor 0 walls
100
AcDbPolyline
 90
        8
 70
     0
 43
1.0
 10
584.9999999999999
 20
105.0
 10
509.9999999999999
 20
105.0
 10
509.9999999999999
 20
200.0
 10
509.9999999999999
 20
289.9999999999999
 10
509.9999999999999
 20
404.9999999999999
 10
509.9999999999999
 20
529.9999999999999
 10
594.9999999999999
 20
529.9999999999999
 10
594.9999999999999
 20
514.9999999999999
  0
LWPOLYLINE
  5
100
330
1F
100
AcDbEntity
  8
floor 0 walls
100
AcDbPolyline
 90
        5
 70
     0
 43
1.0
 10
594.9999999999999
 20
489.9999999999999
 10
594.9999999999999
 20
474.9999999999999
 10
649.9999999999999
 20
474.9999999999999
 10
649.9999999999999
 20
404.9999999999999
 10
624.9999999999999
 20
404.9999999999999
  0
LWPOLYLINE
  5
101
330
1F
100
AcDbEntity
  8
floor 0 walls
100
AcDbPolyline
 90
        4
 70
     0
 43
1.0
 10
594.9999999999999
 20
474.9999999999999
 10
589.9999999999999
 20
474.9999999999999
 10
589.9999999999999
 20
404.9999999999999
 10
599.9999999999999
 20
404.9999999999999
  0
LWPOLYLINE
  5
102
330
1F
100
AcDbEntity
  8
floor 0 walls
100
AcDbPolyline
 90
        3
 70
     0
 43
1.0
 10
589.9999999999999
 20
404.9999999999999
 10
584.9999999999999
 20
404.9999999999999
 10
584.9999999999999
 20
389.9999999999999
  0
LWPOLYLINE
  5
103
330
1F
100
AcDbEntity
  8
floor 0 walls
100
AcDbPolyline
 90
        9
 70
     0
 43
1.0
 10
649.9999999999999
 20
404.9999999999999
 10
674.9999999999999
 20
404.9999999999999
 10
674.9999999999999
 20
230.0
 10
694.9999999999999
 20
230.0
 10
694.9999999999999
 20
254.9999999999999
 10
769.9999999999999
 20
254.9999999999999
 10
769.9999999999999
 20
230.0
 10
829.9999999999999
 20
230.0
 10
829.9999999999999
 20
284.9999999999999
  0
LWPOLYLINE
  5
104
330
1F
100
AcDbEntity
  8
floor 0 walls
100
AcDbPolyline
 90
        2
 70
     0
 43
1.0
 10
584.9999999999999
 20
364.9999999999999
 10
584.9999999999999
 20
254.9999999999999
  0
LWPOLYLINE
  5
105
330
1F
100
AcDbEntity
  8
floor 0 walls
100
AcDbPolyline
 90
        2
 70
     0
 43
1.0
 10
584.9999999999999
 20
165.0
 10
584.9999999999999
 20
200.0
  0
LWPOLYLINE
  5
106
330
1F
100
AcDbEntity
  8
floor 0 walls
100
AcDbPolyline
 90
        2
 70
     0
 43
1.0
 10
509.9999999999999
 20
199.7391791179052
 10
559.9999999999999
 20
200.0
  0
LWPOLYLINE
  5
107
330
1F
100
AcDbEntity
  8
floor 0 walls
100
AcDbPolyline
 90
        2
 70
     0
 43
1.0
 10
509.9999999999999
 20
254.9999999999999
 10
559.9999999999999
 20
254.9999999999999
  0
LWPOLYLINE
  5
109
330
1F
100
AcDbEntity
  8
floor 0 walls
100
AcDbPolyline
 90
        2
 70
     0
 43
1.0
 10
550.0598348678759
 20
529.9999999999999
 10
549.9999999999999
 20
404.9999999999999
  0
LWPOLYLINE
  5
10B
330
1F
100
AcDbEntity
  8
floor 0 walls
100
AcDbPolyline
 90
        4
 70
     0
 43
1.0
 10
649.9999999999999
 20
474.9566985793726
 10
669.9999999999999
 20
474.9999999999999
 10
669.9999999999999
 20
524.9999999999999
 10
924.9999999999999
 20
524.9999999999999
  0
LWPOLYLINE
  5
10C
330
1F
100
AcDbEntity
  8
floor 0 walls
100
AcDbPolyline
 90
       13
 70
     0
 43
1.0
 10
1010.0
 20
524.9999999999999
 10
1055.0
 20
524.9999999999999
 10
1055.0
 20
449.9999999999999
 10
1130.0
 20
449.9999999999999
 10
1130.0
 20
524.9999999999999
 10
1385.0
 20
524.9999999999999
 10
1470.0
 20
524.9999999999999
 10
1540.0
 20
524.9999999999999
 10
1625.0
 20
524.9999999999999
 10
1690.0
 20
524.9999999999999
 10
1735.0
 20
524.9999999999999
 10
1825.0
 20
524.9999999999999
 10
1905.0
 20
524.9999999999999
  0
LWPOLYLINE
  5
10D
330
1F
100
AcDbEntity
  8
floor 0 walls
100
AcDbPolyline
 90
        3
 70
     0
 43
1.0
 10
1130.0
 20
449.9999999999999
 10
1130.0
 20
399.9999999999999
 10
1385.0
 20
399.9999999999999
  0
LWPOLYLINE
  5
10F
330
1F
100
AcDbEntity
  8
floor 0 walls
100
AcDbPolyline
 90
        2
 70
     0
 43
1.0
 10
1385.101596033913
 20
524.9999999999999
 10
1385.0
 20
474.9999999999999
  0
LWPOLYLINE
  5
110
330
1F
100
AcDbEntity
  8
floor 0 walls
100
AcDbPolyline
 90
        2
 70
     0
 43
1.0
 10
1385.0
 20
474.9999999999999
 10
1450.0
 20
474.9999999999999
  0
LWPOLYLINE
  5
112
330
1F
100
AcDbEntity
  8
floor 0 walls
100
AcDbPolyline
 90
        3
 70
     0
 43
1.0
 10
1385.0
 20
474.9999999999999
 10
1385.0
 20
409.9999999999999
 10
1385.0
 20
399.9999999999999
  0
LWPOLYLINE
  5
113
330
1F
100
AcDbEntity
  8
floor 0 walls
100
AcDbPolyline
 90
        3
 70
     0
 43
1.0
 10
1470.0
 20
474.9999999999999
 10
1495.0
 20
474.9999999999999
 10
1495.0
 20
434.9999999999999
  0
LWPOLYLINE
  5
114
330
1F
100
AcDbEntity
  8
floor 0 walls
100
AcDbPolyline
 90
        2
 70
     0
 43
1.0
 10
1495.0
 20
409.9999999999999
 10
1460.0
 20
409.9999999999999
  0
LWPOLYLINE
  5
115
330
1F
100
AcDbEntity
  8
floor 0 walls
100
AcDbPolyline
 90
        2
 70
     0
 43
1.0
 10
1430.0
 20
409.9999999999999
 10
1385.0
 20
409.9999999999999
  0
LWPOLYLINE
  5
118
330
1F
100
AcDbEntity
  8
floor 0 walls
100
AcDbPolyline
 90
        3
 70
     0
 43
1.0
 10
1495.0
 20
409.9999999999999
 10
1810.0
 20
409.9999999999999
 10
1810.0
 20
524.9999999999999
  0
LWPOLYLINE
  5
119
330
1F
100
AcDbEntity
  8
floor 0 walls
100
AcDbPolyline
 90
        2
 70
     0
 43
1.0
 10
1495.0
 20
473.39608593222
 10
1495.0
 20
524.9999999999999
  0
LWPOLYLINE
  5
11A
330
1F
100
AcDbEntity
  8
floor 0 walls
100
AcDbPolyline
 90
        2
 70
     0
 43
1.0
 10
1130.0
 20
524.9999999999999
 10
1105.0
 20
524.9999999999999
  0
LWPOLYLINE
  5
11B
330
1F
100
AcDbEntity
  8
floor 0 walls
100
AcDbPolyline
 90
        6
 70
     0
 43
1.0
 10
874.9999999999999
 20
284.9999999999999
 10
909.9999999999999
 20
284.9999999999999
 10
909.9999999999999
 20
230.0
 10
1220.0
 20
230.0
 10
1220.0
 20
354.9999999999999
 10
1285.0
 20
354.9999999999999
  0
LWPOLYLINE
  5
11C
330
1F
100
AcDbEntity
  8
floor 0 walls
100
AcDbPolyline
 90
        4
 70
     0
 43
1.0
 10
1220.0
 20
230.0
 10
1380.0
 20
230.0
 10
1380.0
 20
354.9999999999999
 10
1310.0
 20
354.9999999999999
  0
LWPOLYLINE
  5
11E
330
1F
100
AcDbEntity
  8
floor 0 walls
100
AcDbPolyline
 90
        2
 70
     0
 43
1.0
 10
1380.0
 20
354.9999999999999
 10
1510.0
 20
354.9999999999999
  0
LWPOLYLINE
  5
11F
330
1F
100
AcDbEntity
  8
floor 0 walls
100
AcDbPolyline
 90
        2
 70
     0
 43
1.0
 10
1535.0
 20
354.9999999999999
 10
1585.0
 20
354.9999999999999
  0
LWPOLYLINE
  5
120
330
1F
100
AcDbEntity
  8
floor 0 walls
100
AcDbPolyline
 90
        5
 70
     0
 43
1.0
 10
1610.0
 20
354.9999999999999
 10
1775.0
 20
354.9999999999999
 10
1775.0
 20
235.0
 10
1775.0
 20
230.0
 10
1380.0
 20
230.0
  0
LWPOLYLINE
  5
121
330
1F
100
AcDbEntity
  8
floor 0 walls
100
AcDbPolyline
 90
        3
 70
     0
 43
1.0
 10
1555.0
 20
354.9999999999999
 10
1555.0
 20
329.9999999999999
 10
1554.85451456224
 20
230.0
  0
LWPOLYLINE
  5
122
330
1F
100
AcDbEntity
  8
floor 0 walls
100
AcDbPolyline
 90
        2
 70
     0
 43
1.0
 10
1820.0
 20
230.0
 10
1865.0
 20
230.0
  0
LWPOLYLINE
  5
123
330
1F
100
AcDbEntity
  8
floor 0 walls
100
AcDbPolyline
 90
        2
 70
     0
 43
1.0
 10
1820.0
 20
230.0
 10
1820.0
 20
364.9999999999999
  0
LWPOLYLINE
  5
124
330
1F
100
AcDbEntity
  8
floor 0 walls
100
AcDbPolyline
 90
        3
 70
     0
 43
1.0
 10
1820.0
 20
399.9999999999999
 10
1810.0
 20
399.9999999999999
 10
1810.0
 20
409.9999999999999
  0
LWPOLYLINE
  5
125
330
1F
100
AcDbEntity
  8
floor 0 walls
100
AcDbPolyline
 90
        2
 70
     0
 43
1.0
 10
1859.864322713699
 20
524.9999999999999
 10
1860.0
 20
404.9999999999999
  0
LWPOLYLINE
  5
126
330
1F
100
AcDbEntity
  8
floor 0 walls
100
AcDbPolyline
 90
        6
 70
     0
 43
1.0
 10
1905.0
 20
489.9999999999999
 10
1970.0
 20
489.9999999999999
 10
1970.0
 20
524.9999999999999
 10
2090.0
 20
524.9999999999999
 10
2090.0
 20
404.9999999999999
 10
2090.0
 20
404.9999999999999
  0
LWPOLYLINE
  5
127
330
1F
100
AcDbEntity
  8
floor 0 walls
100
AcDbPolyline
 90
        2
 70
     0
 43
1.0
 10
1905.0
 20
489.9999999999999
 10
1905.0
 20
404.9999999999999
  0
LWPOLYLINE
  5
128
330
1F
100
AcDbEntity
  8
floor 0 walls
100
AcDbPolyline
 90
        5
 70
     0
 43
1.0
 10
1970.0
 20
489.9999999999999
 10
1970.0
 20
474.9999999999999
 10
1960.0
 20
474.9999999999999
 10
1960.0
 20
404.9999999999999
 10
2090.0
 20
404.9999999999999
  0
LWPOLYLINE
  5
129
330
1F
100
AcDbEntity
  8
floor 0 walls
100
AcDbPolyline
 90
        4
 70
     0
 43
1.0
 10
1820.0
 20
339.3273824693701
 10
1900.0
 20
339.9999999999999
 10
1900.0
 20
230.0
 10
1890.0
 20
230.0
  0
LWPOLYLINE
  5
12A
330
1F
100
AcDbEntity
  8
floor 0 walls
100
AcDbPolyline
 90
        2
 70
     0
 43
1.0
 10
1900.0
 20
230.0
 10
1945.0
 20
230.0
  0
LWPOLYLINE
  5
12B
330
1F
100
AcDbEntity
  8
floor 0 walls
100
AcDbPolyline
 90
        3
 70
     0
 43
1.0
 10
1965.0
 20
230.0
 10
1980.0
 20
230.0
 10
1980.0
 20
364.9999999999999
  0
LWPOLYLINE
  5
12C
330
1F
100
AcDbEntity
  8
floor 0 walls
100
AcDbPolyline
 90
        2
 70
     0
 43
1.0
 10
1900.0
 20
339.9999999999999
 10
1980.0
 20
339.9999999999999
  0
LWPOLYLINE
  5
12E
330
1F
100
AcDbEntity
  8
floor 0 walls
100
AcDbPolyline
 90
        2
 70
     0
 43
1.0
 10
1915.0
 20
404.9999999999999
 10
1905.0
 20
404.9999999999999
  0
LWPOLYLINE
  5
12F
330
1F
100
AcDbEntity
  8
floor 0 walls
100
AcDbPolyline
 90
        2
 70
     0
 43
1.0
 10
2130.0
 20
404.9999999999999
 10
2130.0
 20
449.9999999999999
  0
LWPOLYLINE
  5
130
330
1F
100
AcDbEntity
  8
floor 0 walls
100
AcDbPolyline
 90
        6
 70
     0
 43
1.0
 10
2130.0
 20
474.9999999999999
 10
2130.0
 20
524.9999999999999
 10
2265.0
 20
524.9999999999999
 10
2265.0
 20
404.9999999999999
 10
2130.0
 20
404.9615381273235
 10
2130.0
 20
404.9999999999999
  0
LWPOLYLINE
  5
131
330
1F
100
AcDbEntity
  8
floor 0 walls
100
AcDbPolyline
 90
        3
 70
     0
 43
1.0
 10
2264.060529901827
 20
524.9999999999999
 10
2265.0
 20
524.9999999999999
 10
2965.0
 20
524.9999999999999
  0
LWPOLYLINE
  5
132
330
1F
100
AcDbEntity
  8
floor 0 walls
100
AcDbPolyline
 90
        4
 70
     0
 43
1.0
 10
2990.0
 20
524.9999999999999
 10
3235.0
 20
524.9999999999999
 10
3235.0
 20
404.9999999999999
 10
3195.0
 20
404.9999999999999
  0
LWPOLYLINE
  5
133
330
1F
100
AcDbEntity
  8
floor 0 walls
100
AcDbPolyline
 90
        3
 70
     0
 43
1.0
 10
3160.0
 20
404.9999999999999
 10
2855.0
 20
404.9999999999999
 10
2855.0
 20
524.9999999999999
  0
LWPOLYLINE
  5
135
330
1F
100
AcDbEntity
  8
floor 0 walls
100
AcDbPolyline
 90
        3
 70
     0
 43
1.0
 10
3235.0
 20
524.9999999999999
 10
3395.0
 20
524.9999999999999
 10
3395.0
 20
489.9999999999999
  0
LWPOLYLINE
  5
136
330
1F
100
AcDbEntity
  8
floor 0 walls
100
AcDbPolyline
 90
        4
 70
     0
 43
1.0
 10
3233.963753435801
 20
404.9999999999999
 10
3235.0
 20
404.9999999999999
 10
3395.0
 20
404.9999999999999
 10
3395.0
 20
439.9999999999999
  0
LWPOLYLINE
  5
137
330
1F
100
AcDbEntity
  8
floor 0 walls
100
AcDbPolyline
 90
        2
 70
     0
 43
1.0
 10
2630.0
 20
404.9999999999999
 10
2855.0
 20
404.9999999999999
  0
LWPOLYLINE
  5
138
330
1F
100
AcDbEntity
  8
floor 0 walls
100
AcDbPolyline
 90
        3
 70
     0
 43
1.0
 10
2261.199909674717
 20
404.9989173437759
 10
2265.0
 20
404.9999999999999
 10
2595.0
 20
404.9999999999999
  0
LWPOLYLINE
  5
139
330
1F
100
AcDbEntity
  8
floor 0 walls
100
AcDbPolyline
 90
        3
 70
     0
 43
1.0
 10
2525.0
 20
524.9999999999999
 10
2525.0
 20
474.9999999999999
 10
2565.0
 20
474.9999999999999
  0
LWPOLYLINE
  5
13B
330
1F
100
AcDbEntity
  8
floor 0 walls
100
AcDbPolyline
 90
        3
 70
     0
 43
1.0
 10
2635.0
 20
524.9999999999999
 10
2635.0
 20
474.9999999999999
 10
2590.0
 20
474.9999999999999
  0
LWPOLYLINE
  5
13C
330
1F
100
AcDbEntity
  8
floor 0 walls
100
AcDbPolyline
 90
        2
 70
     0
 43
1.0
 10
2635.0
 20
474.9999999999999
 10
2635.0
 20
469.9999999999999
  0
LWPOLYLINE
  5
13D
330
1F
100
AcDbEntity
  8
floor 0 walls
100
AcDbPolyline
 90
        2
 70
     0
 43
1.0
 10
2635.0
 20
439.9999999999999
 10
2635.0
 20
404.9999999999999
  0
LWPOLYLINE
  5
13F
330
1F
100
AcDbEntity
  8
floor 0 walls
100
AcDbPolyline
 90
        2
 70
     0
 43
1.0
 10
2525.0
 20
404.9999999999999
 10
2525.0
 20
439.9999999999999
  0
LWPOLYLINE
  5
140
330
1F
100
AcDbEntity
  8
floor 0 walls
100
AcDbPolyline
 90
        2
 70
     0
 43
1.0
 10
2340.0
 20
524.9999999999999
 10
2340.0
 20
499.9999999999999
  0
LWPOLYLINE
  5
141
330
1F
100
AcDbEntity
  8
floor 0 walls
100
AcDbPolyline
 90
        2
 70
     0
 43
1.0
 10
2340.0
 20
474.9999999999999
 10
2340.0
 20
464.9999999999999
  0
LWPOLYLINE
  5
142
330
1F
100
AcDbEntity
  8
floor 0 walls
100
AcDbPolyline
 90
        2
 70
     0
 43
1.0
 10
2340.0
 20
434.9999999999999
 10
2340.0
 20
404.9999999999999
  0
LWPOLYLINE
  5
143
330
1F
100
AcDbEntity
  8
floor 0 walls
100
AcDbPolyline
 90
        2
 70
     0
 43
1.0
 10
2785.0
 20
524.9999999999999
 10
2785.0
 20
499.9999999999999
  0
LWPOLYLINE
  5
144
330
1F
100
AcDbEntity
  8
floor 0 walls
100
AcDbPolyline
 90
        2
 70
     0
 43
1.0
 10
2785.0
 20
474.9999999999999
 10
2785.0
 20
459.9999999999999
  0
LWPOLYLINE
  5
145
330
1F
100
AcDbEntity
  8
floor 0 walls
100
AcDbPolyline
 90
        2
 70
     0
 43
1.0
 10
2785.0
 20
434.9999999999999
 10
2785.0
 20
404.9999999999999
  0
LWPOLYLINE
  5
146
330
1F
100
AcDbEntity
  8
floor 0 walls
100
AcDbPolyline
 90
        3
 70
     0
 43
1.0
 10
3450.0
 20
439.9999999999999
 10
3450.0
 20
399.9999999999999
 10
3515.0
 20
399.9999999999999
  0
LWPOLYLINE
  5
147
330
1F
100
AcDbEntity
  8
floor 0 walls
100
AcDbPolyline
 90
        3
 70
     0
 43
1.0
 10
3979.999999999999
 20
339.9999999999999
 10
3899.999999999999
 20
339.9999999999999
 10
3899.999999999999
 20
364.9999999999999
  0
LWPOLYLINE
  5
148
330
1F
100
AcDbEntity
  8
floor 0 walls
100
AcDbPolyline
 90
        3
 70
     0
 43
1.0
 10
3110.0
 20
354.9999999999999
 10
3325.0
 20
354.9999999999999
 10
3325.0
 20
339.9999999999999
  0
LWPOLYLINE
  5
149
330
1F
100
AcDbEntity
  8
floor 0 keepouts
100
AcDbPolyline
 90
        4
 70
     0
 43
1.0
 10
3110.0
 20
354.9999999999999
 10
3110.0
 20
230.0
 10
3250.0
 20
230.0
 10
3250.0
 20
354.9999999999999
  0
LWPOLYLINE
  5
14A
330
1F
100
AcDbEntity
  8
floor 0 walls
100
AcDbPolyline
 90
        2
 70
     0
 43
1.0
 10
3325.0
 20
294.9999999999999
 10
3325.0
 20
314.9999999999999
  0
LWPOLYLINE
  5
14C
330
1F
100
AcDbEntity
  8
floor 0 walls
100
AcDbPolyline
 90
        2
 70
     0
 43
1.0
 10
3250.0
 20
354.9999999999999
 10
3250.0
 20
230.0
  0
LWPOLYLINE
  5
14D
330
1F
100
AcDbEntity
  8
floor 0 walls
100
AcDbPolyline
 90
        2
 70
     0
 43
1.0
 10
3370.0
 20
354.9999999999999
 10
3370.0
 20
314.9999999999999
  0
LWPOLYLINE
  5
14E
330
1F
100
AcDbEntity
  8
floor 0 walls
100
AcDbPolyline
 90
        2
 70
     0
 43
1.0
 10
3370.0
 20
354.9517727665933
 10
3570.0
 20
354.9999999999999
  0
LWPOLYLINE
  5
14F
330
1F
100
AcDbEntity
  8
floor 0 walls
100
AcDbPolyline
 90
        2
 70
     0
 43
1.0
 10
3370.0
 20
294.9999999999999
 10
3370.0
 20
259.9999999999999
  0
LWPOLYLINE
  5
150
330
1F
100
AcDbEntity
  8
floor 0 walls
100
AcDbPolyline
 90
        3
 70
     0
 43
1.0
 10
3370.0
 20
235.0
 10
3370.0
 20
230.0
 10
3570.0
 20
230.0
  0
LWPOLYLINE
  5
151
330
1F
100
AcDbEntity
  8
floor 0 walls
100
AcDbPolyline
 90
        2
 70
     0
 43
1.0
 10
3450.0
 20
354.9999999999999
 10
3449.960239424454
 20
229.9999999999999
  0
LWPOLYLINE
  5
153
330
1F
100
AcDbEntity
  8
floor 0 walls
100
AcDbPolyline
 90
        2
 70
     0
 43
1.0
 10
3525.0
 20
354.9999999999999
 10
3525.0
 20
349.9999999999999
  0
LWPOLYLINE
  5
154
330
1F
100
AcDbEntity
  8
floor 0 walls
100
AcDbPolyline
 90
        2
 70
     0
 43
1.0
 10
3525.0
 20
319.9999999999999
 10
3525.0
 20
264.9999999999999
  0
LWPOLYLINE
  5
156
330
1F
100
AcDbEntity
  8
floor 0 walls
100
AcDbPolyline
 90
        2
 70
     0
 43
1.0
 10
3525.0
 20
230.0
 10
3525.0
 20
235.0
  0
LWPOLYLINE
  5
157
330
1F
100
AcDbEntity
  8
floor 0 walls
100
AcDbPolyline
 90
        2
 70
     0
 43
1.0
 10
3449.976136796979
 20
279.9784406626613
 10
3525.0
 20
279.9999999999999
  0
LWPOLYLINE
  5
158
330
1F
100
AcDbEntity
  8
floor 0 walls
100
AcDbPolyline
 90
        2
 70
     0
 43
1.0
 10
3450.0
 20
294.9999999999999
 10
3370.0
 20
294.5686369895346
  0
LWPOLYLINE
  5
159
330
1F
100
AcDbEntity
  8
floor 0 walls
100
AcDbPolyline
 90
        4
 70
     0
 43
1.0
 10
2760.0
 20
354.9999999999999
 10
2760.0
 20
230.0
 10
2545.0
 20
230.0
 10
2545.0
 20
264.9999999999999
  0
LWPOLYLINE
  5
15A
330
1F
100
AcDbEntity
  8
floor 0 walls
100
AcDbPolyline
 90
        3
 70
     0
 43
1.0
 10
2545.0
 20
289.9999999999999
 10
2545.0
 20
354.9999999999999
 10
2705.0
 20
354.9999999999999
  0
LWPOLYLINE
  5
15B
330
1F
100
AcDbEntity
  8
floor 0 walls
100
AcDbPolyline
 90
        2
 70
     0
 43
1.0
 10
2705.0
 20
354.9999999999999
 10
2759.999999999999
 20
354.9362785092774
  0
LWPOLYLINE
  5
15C
330
1F
100
AcDbEntity
  8
floor 0 walls
100
AcDbPolyline
 90
        2
 70
     0
 43
1.0
 10
2675.0
 20
354.9999999999999
 10
2675.0
 20
230.0
  0
LWPOLYLINE
  5
15D
330
1F
100
AcDbEntity
  8
floor 0 walls
100
AcDbPolyline
 90
        3
 70
     0
 43
1.0
 10
2505.0
 20
230.0
 10
2300.0
 20
230.0
 10
2300.0
 20
235.0
  0
LWPOLYLINE
  5
15E
330
1F
100
AcDbEntity
  8
floor 0 walls
100
AcDbPolyline
 90
        2
 70
     0
 43
1.0
 10
2300.0
 20
264.9999999999999
 10
2300.0
 20
319.9999999999999
  0
LWPOLYLINE
  5
15F
330
1F
100
AcDbEntity
  8
floor 0 walls
100
AcDbPolyline
 90
        3
 70
     0
 43
1.0
 10
2300.0
 20
349.9999999999999
 10
2300.0
 20
354.9999999999999
 10
2380.0
 20
354.9999999999999
  0
LWPOLYLINE
  5
160
330
1F
100
AcDbEntity
  8
floor 0 walls
100
AcDbPolyline
 90
        3
 70
     0
 43
1.0
 10
2405.0
 20
354.9999999999999
 10
2505.0
 20
354.9999999999999
 10
2505.0
 20
319.9999999999999
  0
LWPOLYLINE
  5
162
330
1F
100
AcDbEntity
  8
floor 0 walls
100
AcDbPolyline
 90
        2
 70
     0
 43
1.0
 10
2505.0
 20
230.0
 10
2505.0
 20
235.0
  0
LWPOLYLINE
  5
163
330
1F
100
AcDbEntity
  8
floor 0 walls
100
AcDbPolyline
 90
        2
 70
     0
 43
1.0
 10
2505.0
 20
259.9999999999999
 10
2505.0
 20
294.9999999999999
  0
LWPOLYLINE
  5
164
330
1F
100
AcDbEntity
  8
floor 0 walls
100
AcDbPolyline
 90
        2
 70
     0
 43
1.0
 10
2415.0
 20
354.9999999999999
 10
2415.0
 20
230.0
  0
LWPOLYLINE
  5
165
330
1F
100
AcDbEntity
  8
floor 0 walls
100
AcDbPolyline
 90
        2
 70
     0
 43
1.0
 10
2370.0
 20
354.9999999999999
 10
2369.943226723377
 20
230.0
  0
LWPOLYLINE
  5
166
330
1F
100
AcDbEntity
  8
floor 0 walls
100
AcDbPolyline
 90
        2
 70
     0
 43
1.0
 10
2370.0
 20
279.9999999999999
 10
2300.0
 20
279.9999999999999
  0
LWPOLYLINE
  5
167
330
1F
100
AcDbEntity
  8
floor 0 walls
100
AcDbPolyline
 90
        2
 70
     0
 43
1.0
 10
2095.0
 20
354.9999999999999
 10
2140.0
 20
354.9999999999999
  0
LWPOLYLINE
  5
168
330
1F
100
AcDbEntity
  8
floor 0 walls
100
AcDbPolyline
 90
        4
 70
     0
 43
1.0
 10
2095.0
 20
354.9999999999999
 10
2095.0
 20
230.0
 10
2255.0
 20
230.0
 10
2255.0
 20
264.9999999999999
  0
LWPOLYLINE
  5
169
330
1F
100
AcDbEntity
  8
floor 0 walls
100
AcDbPolyline
 90
        3
 70
     0
 43
1.0
 10
2255.0
 20
319.9999999999999
 10
2255.0
 20
354.9999999999999
 10
2165.0
 20
354.9999999999999
  0
LWPOLYLINE
  5
16A
330
1F
100
AcDbEntity
  8
floor 0 walls
100
AcDbPolyline
 90
        2
 70
     0
 43
1.0
 10
2165.0
 20
354.9999999999999
 10
2164.934810609749
 20
229.9999999999999
  0
LWPOLYLINE
  5
16B
330
1F
100
AcDbEntity
  8
floor 0 walls
100
AcDbPolyline
 90
        2
 70
     0
 43
1.0
 10
2165.0
 20
294.9999999999999
 10
2255.0
 20
294.9999999999999
  0
IMAGE
  5
C7D
330
1F
100
AcDbEntity
  8
ref image floor 1
160
               140
310
8C0000000100000084000000060000000500000077C9269B6CF27E400000000000BC96C00000000000000000F6FFFFFFFF17AF400000000000BC96C00000000000000000F6FFFFFFFF17AF400500000000707CC0000000000000000077C9269B6CF27E400500000000707CC0000000000000000077C9269B6CF27E40000000
310
0000BC96C00000000000000000
100
AcDbRasterImage
 90
        0
 10
495.1515151515118
 20
-1455.0
 30
0.0
 11
1.683501683501683
 21
0.0
 31
0.0
 12
0.0
 22
1.683501683501683
 32
0.0
 13
2070.0
 23
594.0
340
C7C
 70
     7
280
     0
281
    50
282
    50
283
     0
360
C7E
 71
     1
 91
        2
 14
-0.5
 24
-0.5
 14
2069.5
 24
593.5
290
     0
  0
IMAGE
  5
C91
330
1F
100
AcDbEntity
  8
ref image floor 2
160
               140
310
8C00000001000000840000000600000005000000FEFFFFFFFF6F7C400000000000C8A4C00000000000000000D82B88E56586AF400000000000C8A4C00000000000000000D82B88E56586AF40AD051A7095CD99C00000000000000000FEFFFFFFFF6F7C40AD051A7095CD99C00000000000000000FEFFFFFFFF6F7C40000000
310
0000C8A4C00000000000000000
100
AcDbRasterImage
 90
        0
 10
454.9999999999999
 20
-2660.0
 30
0.0
 11
1.727061754372681
 21
0.0
 31
0.0
 12
0.0
 22
1.727061754372681
 32
0.0
 13
2073.0
 23
584.0
340
C90
 70
     7
280
     0
281
    50
282
    50
283
     0
360
C92
 71
     1
 91
        2
 14
-0.5
 24
-0.5
 14
2072.5
 24
583.5
290
     0
  0
IMAGE
  5
C95
330
1F
100
AcDbEntity
  8
ref image floor 3
160
               140
310
8C00000001000000840000000600000005000000FEFFFFFFFF4F79400000000000BAADC00000000000000000436293E052C1AF400000000000BAADC00000000000000000436293E052C1AF406047237959CEA5C00000000000000000FEFFFFFFFF4F79406047237959CEA5C00000000000000000FEFFFFFFFF4F7940000000
310
0000BAADC00000000000000000
100
AcDbRasterImage
 90
        0
 10
404.9999999999999
 20
-3805.0
 30
0.0
 11
1.766246076074689
 21
0.0
 31
0.0
 12
0.0
 22
1.766246076074689
 32
0.0
 13
2072.0
 23
574.0
340
C94
 70
     7
280
     0
281
    50
282
    50
283
     0
360
C96
 71
     1
 91
        2
 14
-0.5
 24
-0.5
 14
2071.5
 24
573.5
290
     0
  0
LWPOLYLINE
  5
C98
330
1F
100
AcDbEntity
  8
floor 1 walls
100
AcDbPolyline
 90
       73
 70
     0
 43
1.0
 10
3944.999999999999
 20
-629.9999999999999
 10
3944.999999999999
 20
-499.9999999999999
 10
3864.999999999999
 20
-499.9999999999999
 10
3864.999999999999
 20
-549.9999999999999
 10
3790.0
 20
-549.9999999999999
 10
3790.0
 20
-499.9999999999999
 10
3545.0
 20
-499.9999999999999
 10
3395.0
 20
-499.9999999999999
 10
3280.0
 20
-499.9999999999999
 10
3195.0
 20
-499.9999999999999
 10
3120.0
 20
-499.9999999999999
 10
3020.0
 20
-499.9999999999999
 10
2955.0
 20
-499.9999999999999
 10
2880.0
 20
-499.9999999999999
 10
2805.0
 20
-499.9999999999999
 10
2705.0
 20
-499.9999999999999
 10
2625.0
 20
-499.9999999999999
 10
2550.0
 20
-499.9999999999999
 10
2485.0
 20
-499.9999999999999
 10
2375.0
 20
-499.9999999999999
 10
2275.0
 20
-499.9999999999999
 10
2125.0
 20
-499.9999999999999
 10
2020.0
 20
-499.9999999999999
 10
1975.0
 20
-499.9999999999999
 10
1970.0
 20
-499.9999999999999
 10
1970.0
 20
-549.9999999999999
 10
1900.0
 20
-549.9999999999999
 10
1900.0
 20
-499.9999999999999
 10
1810.0
 20
-499.9999999999999
 10
1765.0
 20
-499.9999999999999
 10
1690.0
 20
-499.9999999999999
 10
1590.0
 20
-499.9999999999999
 10
1510.0
 20
-499.9999999999999
 10
1370.0
 20
-499.9999999999999
 10
1265.0
 20
-499.9999999999999
 10
1140.0
 20
-499.9999999999999
 10
1040.0
 20
-499.9999999999999
 10
919.9999999999999
 20
-499.9999999999999
 10
834.9999999999999
 20
-499.9999999999999
 10
744.9999999999999
 20
-499.9999999999999
 10
679.9999999999999
 20
-499.9999999999999
 10
679.9999999999999
 20
-549.9999999999999
 10
609.9999999999999
 20
-549.9999999999999
 10
609.9999999999999
 20
-499.9999999999999
 10
524.9999999999999
 20
-499.9999999999999
 10
524.9999999999999
 20
-629.9999999999999
 10
524.9999999999999
 20
-679.9999999999999
 10
524.9999999999999
 20
-919.9999999999999
 10
684.9999999999999
 20
-919.9999999999999
 10
684.9999999999999
 20
-1195.0
 10
784.9999999999999
 20
-1195.0
 10
1055.0
 20
-1195.0
 10
1055.0
 20
-964.9999999999998
 10
1370.0
 20
-964.9999999999998
 10
1370.0
 20
-1195.0
 10
1735.0
 20
-1195.0
 10
1735.0
 20
-964.9999999999998
 10
2050.0
 20
-964.9999999999998
 10
2060.0
 20
-964.9999999999998
 10
2060.0
 20
-974.9999999999998
 10
2360.0
 20
-974.9999999999998
 10
2570.0
 20
-974.9999999999998
 10
2760.0
 20
-974.9999999999998
 10
3070.0
 20
-974.9999999999998
 10
3335.0
 20
-974.9999999999998
 10
3430.0
 20
-974.9999999999998
 10
3775.0
 20
-974.9999999999998
 10
3775.0
 20
-919.9999999999999
 10
3869.999999999999
 20
-919.9999999999999
 10
3944.999999999999
 20
-919.9999999999999
 10
3944.999999999999
 20
-849.9999999999999
 10
3869.999999999999
 20
-849.9999999999999
 10
3869.999999999999
 20
-884.9999999999999
  0
LWPOLYLINE
  5
C9D
330
1F
100
AcDbEntity
  8
floor 1 walls
100
AcDbPolyline
 90
        2
 70
     0
 43
1.0
 10
3944.999999999999
 20
-629.757148077723
 10
3944.989341938537
 20
-849.9999999999999
  0
LWPOLYLINE
  5
C9E
330
1F
100
AcDbEntity
  8
floor 1 walls
100
AcDbPolyline
 90
        2
 70
     0
 43
1.0
 10
3944.992212733735
 20
-790.6766301723901
 10
3869.999999999999
 20
-789.9999999999999
  0
LWPOLYLINE
  5
C9F
330
1F
100
AcDbEntity
  8
floor 1 walls
100
AcDbPolyline
 90
        2
 70
     0
 43
1.0
 10
3869.999999999999
 20
-850.5059035256229
 10
3869.999999999999
 20
-814.9999999999999
  0
LWPOLYLINE
  5
CA0
330
1F
100
AcDbEntity
  8
floor 1 walls
100
AcDbPolyline
 90
        3
 70
     0
 43
1.0
 10
3944.997323828564
 20
-685.0587271878998
 10
3869.999999999999
 20
-684.9999999999999
 10
3869.999999999999
 20
-719.9999999999999
  0
LWPOLYLINE
  5
CA1
330
1F
100
AcDbEntity
  8
floor 1 walls
100
AcDbPolyline
 90
        3
 70
     0
 43
1.0
 10
3944.999999999999
 20
-749.9999999999999
 10
3869.999999999999
 20
-749.9999999999999
 10
3869.999999999999
 20
-789.9999999999999
  0
LWPOLYLINE
  5
CA2
330
1F
100
AcDbEntity
  8
floor 1 walls
100
AcDbPolyline
 90
        2
 70
     0
 43
1.0
 10
3869.999999999999
 20
-685.3030667355733
 10
3869.999999999999
 20
-659.9999999999999
  0
LWPOLYLINE
  5
CA3
330
1F
100
AcDbEntity
  8
floor 1 walls
100
AcDbPolyline
 90
        2
 70
     0
 43
1.0
 10
3864.999999999999
 20
-629.9999999999999
 10
3869.999999999999
 20
-629.9999999999999
  0
LWPOLYLINE
  5
CA4
330
1F
100
AcDbEntity
  8
floor 1 walls
100
AcDbPolyline
 90
        3
 70
     0
 43
1.0
 10
3864.999999999999
 20
-629.9999999999999
 10
3864.999999999999
 20
-549.9999999999999
 10
3864.999997634844
 20
-549.9999999999999
  0
LWPOLYLINE
  5
CA5
330
1F
100
AcDbEntity
  8
floor 1 walls
100
AcDbPolyline
 90
        2
 70
     0
 43
1.0
 10
3904.999999999999
 20
-624.9999999999999
 10
3904.999999999999
 20
-544.9999999999999
1001
PE_URL
1000
material=air
  0
LWPOLYLINE
  5
CA6
330
1F
100
AcDbEntity
  8
floor 1 walls
100
AcDbPolyline
 90
        2
 70
     0
 43
1.0
 10
3805.0
 20
-629.9999999999999
 10
3715.0
 20
-629.9999999999999
  0
LWPOLYLINE
  5
CA7
330
1F
100
AcDbEntity
  8
floor 1 walls
100
AcDbPolyline
 90
        2
 70
     0
 43
1.0
 10
3790.0
 20
-549.9999999999999
 10
3790.0
 20
-629.9999999999999
  0
LWPOLYLINE
  5
CA9
330
1F
100
AcDbEntity
  8
floor 1 walls
100
AcDbPolyline
 90
        2
 70
     0
 43
1.0
 10
3660.0
 20
-629.9999999999999
 10
3600.0
 20
-629.9999999999999
  0
LWPOLYLINE
  5
CAA
330
1F
100
AcDbEntity
  8
floor 1 walls
100
AcDbPolyline
 90
        2
 70
     0
 43
1.0
 10
3545.0
 20
-499.9999999999999
 10
3545.0
 20
-629.9999999999999
  0
LWPOLYLINE
  5
CAB
330
1F
100
AcDbEntity
  8
floor 1 walls
100
AcDbPolyline
 90
        3
 70
     0
 43
1.0
 10
3465.0
 20
-629.9999999999999
 10
3430.0
 20
-629.9999999999999
 10
3430.0
 20
-564.9999999999999
  0
LWPOLYLINE
  5
CAC
330
1F
100
AcDbEntity
  8
floor 1 walls
100
AcDbPolyline
 90
        3
 70
     0
 43
1.0
 10
3575.0
 20
-629.9999999999999
 10
3545.0
 20
-629.9999999999999
 10
3485.0
 20
-629.9999999999999
  0
LWPOLYLINE
  5
CAD
330
1F
100
AcDbEntity
  8
floor 1 walls
100
AcDbPolyline
 90
        3
 70
     0
 43
1.0
 10
3690.0
 20
-629.9999999999999
 10
3660.0
 20
-629.9999999999999
 10
3660.0
 20
-499.9999999999999
  0
LWPOLYLINE
  5
CAE
330
1F
100
AcDbEntity
  8
floor 1 walls
100
AcDbPolyline
 90
        2
 70
     0
 43
1.0
 10
3430.0
 20
-539.9999999999999
 10
3430.0
 20
-499.9999999999999
  0
LWPOLYLINE
  5
CAF
330
1F
100
AcDbEntity
  8
floor 1 walls
100
AcDbPolyline
 90
        3
 70
     0
 43
1.0
 10
3785.0
 20
-919.9999999999999
 10
3785.0
 20
-839.9999999999999
 10
3740.0
 20
-839.9999999999999
  0
LWPOLYLINE
  5
CB0
330
1F
100
AcDbEntity
  8
floor 1 walls
100
AcDbPolyline
 90
        2
 70
     0
 43
1.0
 10
3715.0
 20
-839.9999999999999
 10
3655.0
 20
-839.9999999999999
  0
LWPOLYLINE
  5
CB1
330
1F
100
AcDbEntity
  8
floor 1 walls
100
AcDbPolyline
 90
        2
 70
     0
 43
1.0
 10
3630.0
 20
-839.9999999999999
 10
3570.0
 20
-839.9999999999999
  0
LWPOLYLINE
  5
CB2
330
1F
100
AcDbEntity
  8
floor 1 walls
100
AcDbPolyline
 90
        2
 70
     0
 43
1.0
 10
3600.0
 20
-839.9999999999999
 10
3600.0
 20
-974.9999999999998
  0
LWPOLYLINE
  5
CB3
330
1F
100
AcDbEntity
  8
floor 1 walls
100
AcDbPolyline
 90
        2
 70
     0
 43
1.0
 10
3545.0
 20
-839.9999999999999
 10
3485.0
 20
-839.9999999999999
  0
LWPOLYLINE
  5
CB4
330
1F
100
AcDbEntity
  8
floor 1 walls
100
AcDbPolyline
 90
        2
 70
     0
 43
1.0
 10
3460.0
 20
-839.9999999999999
 10
3435.0
 20
-839.9999999999999
  0
LWPOLYLINE
  5
CB5
330
1F
100
AcDbEntity
  8
floor 1 walls
100
AcDbPolyline
 90
        2
 70
     0
 43
1.0
 10
3435.0
 20
-839.9999999999999
 10
3435.0
 20
-969.9999999999998
  0
LWPOLYLINE
  5
CB8
330
1F
100
AcDbEntity
  8
floor 1 walls
100
AcDbPolyline
 90
        2
 70
     0
 43
1.0
 10
3090.0
 20
-839.9999999999999
 10
3090.0
 20
-974.9999999999998
  0
LWPOLYLINE
  5
CBA
330
1F
100
AcDbEntity
  8
floor 1 walls
100
AcDbPolyline
 90
        3
 70
     0
 43
1.0
 10
2745.0
 20
-839.9999999999999
 10
2745.0
 20
-839.9999999999999
 10
2745.0
 20
-974.9999999999998
  0
LWPOLYLINE
  5
CBB
330
1F
100
AcDbEntity
  8
floor 1 walls
100
AcDbPolyline
 90
        3
 70
     0
 43
1.0
 10
3090.0
 20
-499.9999999999999
 10
3090.0
 20
-629.9999999999999
 10
3035.0
 20
-629.9999999999999
  0
LWPOLYLINE
  5
CBC
330
1F
100
AcDbEntity
  8
floor 1 walls
100
AcDbPolyline
 90
        3
 70
     0
 43
1.0
 10
2100.0
 20
-629.9999999999999
 10
1975.0
 20
-629.9999999999999
 10
1975.0
 20
-639.9999999999999
  0
LWPOLYLINE
  5
CBD
330
1F
100
AcDbEntity
  8
floor 1 walls
100
AcDbPolyline
 90
        2
 70
     0
 43
1.0
 10
2215.0
 20
-629.9999999999999
 10
2120.0
 20
-629.9999999999999
  0
LWPOLYLINE
  5
CBE
330
1F
100
AcDbEntity
  8
floor 1 walls
100
AcDbPolyline
 90
        2
 70
     0
 43
1.0
 10
2325.0
 20
-629.9999999999999
 10
2235.0
 20
-629.9999999999999
  0
LWPOLYLINE
  5
CBF
330
1F
100
AcDbEntity
  8
floor 1 walls
100
AcDbPolyline
 90
        2
 70
     0
 43
1.0
 10
2435.0
 20
-629.9999999999999
 10
2345.0
 20
-629.9999999999999
  0
LWPOLYLINE
  5
CC0
330
1F
100
AcDbEntity
  8
floor 1 walls
100
AcDbPolyline
 90
        2
 70
     0
 43
1.0
 10
2550.0
 20
-629.9999999999999
 10
2465.0
 20
-629.9999999999999
  0
LWPOLYLINE
  5
CC1
330
1F
100
AcDbEntity
  8
floor 1 walls
100
AcDbPolyline
 90
        2
 70
     0
 43
1.0
 10
2665.0
 20
-629.9999999999999
 10
2575.0
 20
-629.9999999999999
  0
LWPOLYLINE
  5
CC2
330
1F
100
AcDbEntity
  8
floor 1 walls
100
AcDbPolyline
 90
        2
 70
     0
 43
1.0
 10
2775.0
 20
-629.9999999999999
 10
2690.0
 20
-629.9999999999999
  0
LWPOLYLINE
  5
CC3
330
1F
100
AcDbEntity
  8
floor 1 walls
100
AcDbPolyline
 90
        2
 70
     0
 43
1.0
 10
2895.0
 20
-629.9999999999999
 10
2805.0
 20
-629.9999999999999
  0
LWPOLYLINE
  5
CC4
330
1F
100
AcDbEntity
  8
floor 1 walls
100
AcDbPolyline
 90
        2
 70
     0
 43
1.0
 10
3005.0
 20
-629.9999999999999
 10
2920.0
 20
-629.9999999999999
  0
LWPOLYLINE
  5
CC5
330
1F
100
AcDbEntity
  8
floor 1 walls
100
AcDbPolyline
 90
        2
 70
     0
 43
1.0
 10
2975.0
 20
-499.9999999999999
 10
2975.0
 20
-629.9999999999999
  0
LWPOLYLINE
  5
CC6
330
1F
100
AcDbEntity
  8
floor 1 walls
100
AcDbPolyline
 90
        2
 70
     0
 43
1.0
 10
2750.0
 20
-499.9999999999999
 10
2750.0
 20
-629.9999999999999
  0
LWPOLYLINE
  5
CC7
330
1F
100
AcDbEntity
  8
floor 1 walls
100
AcDbPolyline
 90
        2
 70
     0
 43
1.0
 10
2630.0
 20
-499.9999999999999
 10
2630.0
 20
-629.9999999999999
  0
LWPOLYLINE
  5
CC8
330
1F
100
AcDbEntity
  8
floor 1 walls
100
AcDbPolyline
 90
        2
 70
     0
 43
1.0
 10
2405.0
 20
-499.9999999999999
 10
2405.0
 20
-629.9999999999999
  0
LWPOLYLINE
  5
CC9
330
1F
100
AcDbEntity
  8
floor 1 walls
100
AcDbPolyline
 90
        2
 70
     0
 43
1.0
 10
2290.0
 20
-499.9999999999999
 10
2290.0
 20
-629.9999999999999
  0
LWPOLYLINE
  5
CCA
330
1F
100
AcDbEntity
  8
floor 1 walls
100
AcDbPolyline
 90
        2
 70
     0
 43
1.0
 10
2180.0
 20
-499.9999999999999
 10
2180.0
 20
-629.9999999999999
  0
LWPOLYLINE
  5
CCB
330
1F
100
AcDbEntity
  8
floor 1 walls
100
AcDbPolyline
 90
        3
 70
     0
 43
1.0
 10
2405.0
 20
-974.9999999999998
 10
2405.0
 20
-839.9999999999999
 10
2350.0
 20
-839.9999999999999
  0
LWPOLYLINE
  5
CCC
330
1F
100
AcDbEntity
  8
floor 1 walls
100
AcDbPolyline
 90
        2
 70
     0
 43
1.0
 10
2320.0
 20
-839.9999999999999
 10
2320.0
 20
-974.9999999999998
  0
LWPOLYLINE
  5
CCD
330
1F
100
AcDbEntity
  8
floor 1 walls
100
AcDbPolyline
 90
        3
 70
     0
 43
1.0
 10
2410.0
 20
-674.9999999999999
 10
2290.0
 20
-674.9999999999999
 10
2290.0
 20
-679.9999999999999
  0
LWPOLYLINE
  5
CCE
330
1F
100
AcDbEntity
  8
floor 1 walls
100
AcDbPolyline
 90
        4
 70
     0
 43
1.0
 10
2410.0
 20
-674.9999999999999
 10
2410.0
 20
-794.9999999999999
 10
2290.0
 20
-794.9999999999999
 10
2290.0
 20
-789.9999999999999
  0
LWPOLYLINE
  5
CCF
330
1F
100
AcDbEntity
  8
floor 1 walls
100
AcDbPolyline
 90
        2
 70
     0
 43
1.0
 10
2290.0
 20
-709.9999999999999
 10
2290.0
 20
-759.9999999999999
  0
LWPOLYLINE
  5
CD0
330
1F
100
AcDbEntity
  8
floor 1 walls
100
AcDbPolyline
 90
        3
 70
     0
 43
1.0
 10
2355.0
 20
-674.9999999999999
 10
2360.0
 20
-674.9999999999999
 10
2360.0
 20
-794.9999999999999
  0
LWPOLYLINE
  5
CD1
330
1F
100
AcDbEntity
  8
floor 1 walls
100
AcDbPolyline
 90
        2
 70
     0
 43
1.0
 10
2360.0
 20
-744.9999999999999
 10
2290.0
 20
-744.9999999999999
  0
LWPOLYLINE
  5
CD2
330
1F
100
AcDbEntity
  8
floor 1 walls
100
AcDbPolyline
 90
        2
 70
     0
 43
1.0
 10
1900.0
 20
-549.9999999999999
 10
1900.0
 20
-629.9999999999999
  0
LWPOLYLINE
  5
CD3
330
1F
100
AcDbEntity
  8
floor 1 walls
100
AcDbPolyline
 90
        2
 70
     0
 43
1.0
 10
1970.0
 20
-674.9999999999999
 10
1970.0
 20
-664.9999999999999
  0
LWPOLYLINE
  5
CD4
330
1F
100
AcDbEntity
  8
floor 1 walls
100
AcDbPolyline
 90
        2
 70
     0
 43
1.0
 10
1975.0
 20
-639.9999999999999
 10
1970.0
 20
-639.9999999999999
  0
LWPOLYLINE
  5
CD5
330
1F
100
AcDbEntity
  8
floor 1 walls
100
AcDbPolyline
 90
        3
 70
     0
 43
1.0
 10
1970.0
 20
-674.9999999999999
 10
1815.0
 20
-674.9999999999999
 10
1815.0
 20
-664.9999999999999
  0
LWPOLYLINE
  5
CD6
330
1F
100
AcDbEntity
  8
floor 1 walls
100
AcDbPolyline
 90
        2
 70
     0
 43
1.0
 10
1820.0
 20
-629.9999999999999
 10
1820.0
 20
-499.9999999999999
  0
LWPOLYLINE
  5
CD7
330
1F
100
AcDbEntity
  8
floor 1 walls
100
AcDbPolyline
 90
        2
 70
     0
 43
1.0
 10
1855.0
 20
-624.9999999999999
 10
1855.0
 20
-544.9999999999999
  0
LWPOLYLINE
  5
CD8
330
1F
100
AcDbEntity
  8
floor 1 walls
100
AcDbPolyline
 90
        3
 70
     0
 43
1.0
 10
1895.0
 20
-674.9999999999999
 10
1895.0
 20
-794.9999999999999
 10
1905.0
 20
-794.9999999999999
  0
LWPOLYLINE
  5
CD9
330
1F
100
AcDbEntity
  8
floor 1 walls
100
AcDbPolyline
 90
        2
 70
     0
 43
1.0
 10
1895.0
 20
-794.9999999999999
 10
1885.0
 20
-794.9999999999999
  0
LWPOLYLINE
  5
CDA
330
1F
100
AcDbEntity
  8
floor 1 walls
100
AcDbPolyline
 90
        6
 70
     0
 43
1.0
 10
1860.0
 20
-794.9999999999999
 10
1815.0
 20
-794.9999999999999
 10
1815.0
 20
-744.9999999999999
 10
1970.0
 20
-744.9999999999999
 10
1970.0
 20
-794.9999999999999
 10
1900.0
 20
-794.9999999999999
  0
LWPOLYLINE
  5
CDB
330
1F
100
AcDbEntity
  8
floor 1 walls
100
AcDbPolyline
 90
        2
 70
     0
 43
1.0
 10
1815.0
 20
-744.9999999999999
 10
1815.0
 20
-729.9999999999999
  0
LWPOLYLINE
  5
CDC
330
1F
100
AcDbEntity
  8
floor 1 walls
100
AcDbPolyline
 90
        2
 70
     0
 43
1.0
 10
1815.0
 20
-674.9999999999999
 10
1815.0
 20
-689.9999999999999
  0
LWPOLYLINE
  5
CDD
330
1F
100
AcDbEntity
  8
floor 1 walls
100
AcDbPolyline
 90
        2
 70
     0
 43
1.0
 10
1970.0
 20
-674.9999999999999
 10
1970.0
 20
-719.9999999999999
  0
LWPOLYLINE
  5
CDE
330
1F
100
AcDbEntity
  8
floor 1 walls
100
AcDbPolyline
 90
        2
 70
     0
 43
1.0
 10
2030.0
 20
-679.9999999999999
 10
2030.0
 20
-789.9999999999999
  0
LWPOLYLINE
  5
CDF
330
1F
100
AcDbEntity
  8
floor 1 walls
100
AcDbPolyline
 90
        2
 70
     0
 43
1.0
 10
2055.0
 20
-839.9999999999999
 10
2055.0
 20
-964.9999999999998
  0
LWPOLYLINE
  5
CE0
330
1F
100
AcDbEntity
  8
floor 1 walls
100
AcDbPolyline
 90
        2
 70
     0
 43
1.0
 10
1970.0
 20
-839.9999999999999
 10
1815.0
 20
-839.9999999999999
  0
LWPOLYLINE
  5
CE1
330
1F
100
AcDbEntity
  8
floor 1 walls
100
AcDbPolyline
 90
        2
 70
     0
 43
1.0
 10
1975.0
 20
-939.9999999999999
 10
1975.0
 20
-869.9999999999999
  0
LWPOLYLINE
  5
CE2
330
1F
100
AcDbEntity
  8
floor 1 walls
100
AcDbPolyline
 90
        2
 70
     0
 43
1.0
 10
1815.0
 20
-869.9999999999999
 10
1815.0
 20
-934.9999999999999
  0
LWPOLYLINE
  5
CE3
330
1F
100
AcDbEntity
  8
floor 1 walls
100
AcDbPolyline
 90
        3
 70
     0
 43
1.0
 10
1895.0
 20
-839.9999999999999
 10
1895.0
 20
-959.9999999999998
 10
1895.0
 20
-964.9999999999998
  0
LWPOLYLINE
  5
CE4
330
1F
100
AcDbEntity
  8
floor 1 walls
100
AcDbPolyline
 90
        2
 70
     0
 43
1.0
 10
1815.0
 20
-904.9999999999999
 10
1975.0
 20
-904.9999999999999
  0
LWPOLYLINE
  5
CE5
330
1F
100
AcDbEntity
  8
floor 1 walls
100
AcDbPolyline
 90
        2
 70
     0
 43
1.0
 10
1970.0
 20
-549.9999999999999
 10
1970.0
 20
-639.9999999999999
  0
LWPOLYLINE
  5
CE6
330
1F
100
AcDbEntity
  8
floor 1 walls
100
AcDbPolyline
 90
        3
 70
     0
 43
1.0
 10
1735.0
 20
-964.9999999999998
 10
1735.0
 20
-839.9999999999999
 10
1610.0
 20
-839.9999999999999
  0
LWPOLYLINE
  5
CE7
330
1F
100
AcDbEntity
  8
floor 1 walls
100
AcDbPolyline
 90
        2
 70
     0
 43
1.0
 10
1565.0
 20
-839.9999999999999
 10
1535.0
 20
-839.9999999999999
  0
LWPOLYLINE
  5
CE8
330
1F
100
AcDbEntity
  8
floor 1 walls
100
AcDbPolyline
 90
        4
 70
     0
 43
1.0
 10
1490.0
 20
-839.9999999999999
 10
1380.0
 20
-839.9999999999999
 10
1380.0
 20
-964.9999999999998
 10
1360.0
 20
-964.9999999999998
  0
LWPOLYLINE
  5
CEA
330
1F
100
AcDbEntity
  8
floor 1 walls
100
AcDbPolyline
 90
        2
 70
     0
 43
1.0
 10
1350.0
 20
-839.9999999999999
 10
1290.0
 20
-839.9999999999999
  0
LWPOLYLINE
  5
CEB
330
1F
100
AcDbEntity
  8
floor 1 walls
100
AcDbPolyline
 90
        2
 70
     0
 43
1.0
 10
1265.0
 20
-839.9999999999999
 10
1155.0
 20
-839.9999999999999
  0
LWPOLYLINE
  5
CEC
330
1F
100
AcDbEntity
  8
floor 1 walls
100
AcDbPolyline
 90
        2
 70
     0
 43
1.0
 10
1130.0
 20
-839.9999999999999
 10
1070.0
 20
-839.9999999999999
  0
LWPOLYLINE
  5
CED
330
1F
100
AcDbEntity
  8
floor 1 walls
100
AcDbPolyline
 90
        4
 70
     0
 43
1.0
 10
1045.0
 20
-839.9999999999999
 10
1040.0
 20
-839.9999999999999
 10
1040.0
 20
-964.9999999999998
 10
1065.0
 20
-964.9999999999998
  0
LWPOLYLINE
  5
CEE
330
1F
100
AcDbEntity
  8
floor 1 walls
100
AcDbPolyline
 90
        2
 70
     0
 43
1.0
 10
1125.0
 20
-839.9999999999999
 10
1125.0
 20
-964.9999999999998
  0
LWPOLYLINE
  5
CF0
330
1F
100
AcDbEntity
  8
floor 1 walls
100
AcDbPolyline
 90
        2
 70
     0
 43
1.0
 10
1210.0
 20
-839.9999999999999
 10
1210.0
 20
-964.9999999999998
  0
LWPOLYLINE
  5
CF1
330
1F
100
AcDbEntity
  8
floor 1 walls
100
AcDbPolyline
 90
        2
 70
     0
 43
1.0
 10
1295.0
 20
-839.9999999999999
 10
1295.0
 20
-964.9999999999998
  0
LWPOLYLINE
  5
CF2
330
1F
100
AcDbEntity
  8
floor 1 walls
100
AcDbPolyline
 90
        2
 70
     0
 43
1.0
 10
1820.0
 20
-629.9999999999999
 10
1780.0
 20
-629.9999999999999
  0
LWPOLYLINE
  5
CF3
330
1F
100
AcDbEntity
  8
floor 1 walls
100
AcDbPolyline
 90
        2
 70
     0
 43
1.0
 10
564.9999999999999
 20
-544.9999999999999
 10
564.9999999999999
 20
-624.9999999999999
  0
LWPOLYLINE
  5
CF4
330
1F
100
AcDbEntity
  8
floor 1 walls
100
AcDbPolyline
 90
        4
 70
     0
 43
1.0
 10
609.9999999999999
 20
-549.9999999999999
 10
609.9999999999999
 20
-629.9999999999999
 10
599.9999999999999
 20
-629.9999999999999
 10
599.9999999999999
 20
-639.9999999999999
  0
LWPOLYLINE
  5
CF5
330
1F
100
AcDbEntity
  8
floor 1 walls
100
AcDbPolyline
 90
        3
 70
     0
 43
1.0
 10
599.9999999999999
 20
-664.9999999999999
 10
599.9999999999999
 20
-689.9999999999999
 10
524.9999999999999
 20
-689.9999999999999
  0
LWPOLYLINE
  5
CF6
330
1F
100
AcDbEntity
  8
floor 1 walls
100
AcDbPolyline
 90
        3
 70
     0
 43
1.0
 10
599.9999999999999
 20
-719.9999999999999
 10
599.9999999999999
 20
-789.9999999999999
 10
524.9999999999999
 20
-789.9999999999999
  0
LWPOLYLINE
  5
CF7
330
1F
100
AcDbEntity
  8
floor 1 walls
100
AcDbPolyline
 90
        2
 70
     0
 43
1.0
 10
599.9999999999999
 20
-749.9999999999999
 10
524.9999999999999
 20
-749.9999999999999
  0
LWPOLYLINE
  5
CF8
330
1F
100
AcDbEntity
  8
floor 1 walls
100
AcDbPolyline
 90
        3
 70
     0
 43
1.0
 10
599.9999999999999
 20
-814.9999999999999
 10
599.9999999999999
 20
-849.9999999999999
 10
524.9999999999999
 20
-849.9999999999999
  0
LWPOLYLINE
  5
CF9
330
1F
100
AcDbEntity
  8
floor 1 walls
100
AcDbPolyline
 90
        2
 70
     0
 43
1.0
 10
599.9999999999999
 20
-849.9999999999999
 10
599.9999999999999
 20
-884.9999999999999
  0
LWPOLYLINE
  5
CFA
330
1F
100
AcDbEntity
  8
floor 1 walls
100
AcDbPolyline
 90
        2
 70
     0
 43
1.0
 10
684.9999999999999
 20
-839.9999999999999
 10
684.9999999999999
 20
-919.9999999999999
  0
LWPOLYLINE
  5
CFB
330
1F
100
AcDbEntity
  8
floor 1 walls
100
AcDbPolyline
 90
        2
 70
     0
 43
1.0
 10
684.9999999999999
 20
-839.9999999999999
 10
794.9999999999999
 20
-839.9999999999999
  0
LWPOLYLINE
  5
CFC
330
1F
100
AcDbEntity
  8
floor 1 walls
100
AcDbPolyline
 90
        2
 70
     0
 43
1.0
 10
1040.0
 20
-839.9999999999999
 10
934.9999999999999
 20
-839.9999999999999
  0
LWPOLYLINE
  5
CFD
330
1F
100
AcDbEntity
  8
floor 1 walls
100
AcDbPolyline
 90
        2
 70
     0
 43
1.0
 10
889.9999999999999
 20
-839.9999999999999
 10
839.9999999999999
 20
-839.9999999999999
  0
LWPOLYLINE
  5
CFF
330
1F
100
AcDbEntity
  8
floor 1 walls
100
AcDbPolyline
 90
        2
 70
     0
 43
1.0
 10
979.9999999999998
 20
-674.9999999999999
 10
869.9999999999999
 20
-674.9999999999999
  0
LWPOLYLINE
  5
D00
330
1F
100
AcDbEntity
  8
floor 1 walls
100
AcDbPolyline
 90
        2
 70
     0
 43
1.0
 10
839.9999999999999
 20
-674.9999999999999
 10
839.9999999999999
 20
-794.9999999999999
  0
LWPOLYLINE
  5
D01
330
1F
100
AcDbEntity
  8
floor 1 walls
100
AcDbPolyline
 90
        2
 70
     0
 43
1.0
 10
869.9999999999999
 20
-794.9999999999999
 10
954.9999999999999
 20
-794.9999999999999
  0
LWPOLYLINE
  5
D02
330
1F
100
AcDbEntity
  8
floor 1 walls
100
AcDbPolyline
 90
        4
 70
     0
 43
1.0
 10
979.9999999999998
 20
-794.9999999999999
 10
984.9999999999998
 20
-794.9999999999999
 10
984.9999999999998
 20
-674.9999999999999
 10
974.9999999999998
 20
-674.9999999999999
  0
LWPOLYLINE
  5
D03
330
1F
100
AcDbEntity
  8
floor 1 walls
100
AcDbPolyline
 90
        2
 70
     0
 43
1.0
 10
1040.0
 20
-674.9999999999999
 10
1075.0
 20
-674.9999999999999
  0
LWPOLYLINE
  5
D04
330
1F
100
AcDbEntity
  8
floor 1 walls
100
AcDbPolyline
 90
        7
 70
     0
 43
1.0
 10
1040.0
 20
-674.9999999999999
 10
1040.0
 20
-794.9999999999999
 10
1175.0
 20
-794.9999999999999
 10
1175.0
 20
-739.9999999999999
 10
1230.0
 20
-739.9999999999999
 10
1230.0
 20
-794.9999999999999
 10
1300.0
 20
-794.9999999999999
  0
LWPOLYLINE
  5
D05
330
1F
100
AcDbEntity
  8
floor 1 walls
100
AcDbPolyline
 90
        4
 70
     0
 43
1.0
 10
1330.0
 20
-794.9999999999999
 10
1500.0
 20
-794.9999999999999
 10
1500.0
 20
-674.9999999999999
 10
1465.0
 20
-674.9999999999999
  0
LWPOLYLINE
  5
D06
330
1F
100
AcDbEntity
  8
floor 1 walls
100
AcDbPolyline
 90
        3
 70
     0
 43
1.0
 10
1435.0
 20
-674.9999999999999
 10
1230.0
 20
-674.9999999999999
 10
1230.0
 20
-739.9999999999999
  0
LWPOLYLINE
  5
D07
330
1F
100
AcDbEntity
  8
floor 1 walls
100
AcDbPolyline
 90
        2
 70
     0
 43
1.0
 10
1200.0
 20
-674.9999999999999
 10
1095.0
 20
-674.9999999999999
  0
LWPOLYLINE
  5
D08
330
1F
100
AcDbEntity
  8
floor 1 walls
100
AcDbPolyline
 90
        2
 70
     0
 43
1.0
 10
1175.0
 20
-674.9999999999999
 10
1175.0
 20
-744.9999999999999
  0
LWPOLYLINE
  5
D09
330
1F
100
AcDbEntity
  8
floor 1 walls
100
AcDbPolyline
 90
        2
 70
     0
 43
1.0
 10
799.9999999999999
 20
-869.9999999999999
 10
799.9999999999999
 20
-934.9999999999999
1001
PE_URL
1000
material=air
  0
LWPOLYLINE
  5
D0A
330
1F
100
AcDbEntity
  8
floor 1 walls
100
AcDbPolyline
 90
        2
 70
     0
 43
1.0
 10
799.9999999999999
 20
-964.9999999999998
 10
799.9999999999999
 20
-1050.0
1001
PE_URL
1000
material=air
  0
LWPOLYLINE
  5
D0B
330
1F
100
AcDbEntity
  8
floor 1 walls
100
AcDbPolyline
 90
        2
 70
     0
 43
1.0
 10
799.9999999999999
 20
-1080.0
 10
799.9999999999999
 20
-1165.0
1001
PE_URL
1000
material=air
  0
LWPOLYLINE
  5
D0C
330
1F
100
AcDbEntity
  8
floor 1 walls
100
AcDbPolyline
 90
        2
 70
     0
 43
1.0
 10
939.9999999999999
 20
-1170.0
 10
939.9999999999999
 20
-1080.0
1001
PE_URL
1000
material=air
  0
LWPOLYLINE
  5
D0D
330
1F
100
AcDbEntity
  8
floor 1 walls
100
AcDbPolyline
 90
        2
 70
     0
 43
1.0
 10
939.9999999999999
 20
-1050.0
 10
939.9999999999999
 20
-964.9999999999998
1001
PE_URL
1000
material=air
  0
LWPOLYLINE
  5
D0E
330
1F
100
AcDbEntity
  8
floor 1 walls
100
AcDbPolyline
 90
        2
 70
     0
 43
1.0
 10
939.9999999999999
 20
-934.9999999999999
 10
939.9999999999999
 20
-869.9999999999999
1001
PE_URL
1000
material=air
  0
LWPOLYLINE
  5
D0F
330
1F
100
AcDbEntity
  8
floor 1 walls
100
AcDbPolyline
 90
        2
 70
     0
 43
1.0
 10
769.9999999999999
 20
-954.9999999999999
 10
709.9999999999999
 20
-954.9999999999999
1001
PE_URL
1000
material=air
  0
LWPOLYLINE
  5
D10
330
1F
100
AcDbEntity
  8
floor 1 walls
100
AcDbPolyline
 90
        2
 70
     0
 43
1.0
 10
1030.0
 20
-954.9999999999999
 10
969.9999999999998
 20
-954.9999999999999
1001
PE_URL
1000
material=air
  0
LWPOLYLINE
  5
D11
330
1F
100
AcDbEntity
  8
floor 1 walls
100
AcDbPolyline
 90
        2
 70
     0
 43
1.0
 10
769.9999999999999
 20
-1065.0
 10
709.9999999999999
 20
-1065.0
1001
PE_URL
1000
material=air
  0
LWPOLYLINE
  5
D12
330
1F
100
AcDbEntity
  8
floor 1 walls
100
AcDbPolyline
 90
        2
 70
     0
 43
1.0
 10
1030.0
 20
-1065.0
 10
964.9999999999998
 20
-1065.0
1001
PE_URL
1000
material=air
  0
LWPOLYLINE
  5
D13
330
1F
100
AcDbEntity
  8
floor 1 walls
100
AcDbPolyline
 90
        2
 70
     0
 43
1.0
 10
909.9999999999999
 20
-1065.0
 10
829.9999999999999
 20
-1065.0
1001
PE_URL
1000
material=air
  0
LWPOLYLINE
  5
D14
330
1F
100
AcDbEntity
  8
floor 1 walls
100
AcDbPolyline
 90
        2
 70
     0
 43
1.0
 10
814.9999999999999
 20
-499.9999999999999
 10
814.9999999999999
 20
-629.9999999999999
  0
LWPOLYLINE
  5
D15
330
1F
100
AcDbEntity
  8
floor 1 walls
100
AcDbPolyline
 90
        2
 70
     0
 43
1.0
 10
929.9999999999999
 20
-499.9999999999999
 10
929.9999999999999
 20
-629.9999999999999
  0
LWPOLYLINE
  5
D17
330
1F
100
AcDbEntity
  8
floor 1 walls
100
AcDbPolyline
 90
        2
 70
     0
 43
1.0
 10
1040.0
 20
-499.9999999999999
 10
1040.0
 20
-629.9999999999999
  0
LWPOLYLINE
  5
D18
330
1F
100
AcDbEntity
  8
floor 1 walls
100
AcDbPolyline
 90
        2
 70
     0
 43
1.0
 10
1155.0
 20
-499.9999999999999
 10
1155.0
 20
-629.9999999999999
  0
LWPOLYLINE
  5
D19
330
1F
100
AcDbEntity
  8
floor 1 walls
100
AcDbPolyline
 90
        2
 70
     0
 43
1.0
 10
1270.0
 20
-499.9999999999999
 10
1270.0
 20
-629.9999999999999
  0
LWPOLYLINE
  5
D1A
330
1F
100
AcDbEntity
  8
floor 1 walls
100
AcDbPolyline
 90
        2
 70
     0
 43
1.0
 10
1385.0
 20
-499.9999999999999
 10
1385.0
 20
-629.9999999999999
  0
LWPOLYLINE
  5
D1B
330
1F
100
AcDbEntity
  8
floor 1 walls
100
AcDbPolyline
 90
        2
 70
     0
 43
1.0
 10
1495.0
 20
-499.9999999999999
 10
1495.0
 20
-629.9999999999999
  0
LWPOLYLINE
  5
D1C
330
1F
100
AcDbEntity
  8
floor 1 walls
100
AcDbPolyline
 90
        2
 70
     0
 43
1.0
 10
1610.0
 20
-499.9999999999999
 10
1610.0
 20
-629.9999999999999
  0
LWPOLYLINE
  5
D1D
330
1F
100
AcDbEntity
  8
floor 1 walls
100
AcDbPolyline
 90
        2
 70
     0
 43
1.0
 10
1725.0
 20
-499.9999999999999
 10
1725.0
 20
-629.9999999999999
  0
LWPOLYLINE
  5
D1E
330
1F
100
AcDbEntity
  8
floor 1 walls
100
AcDbPolyline
 90
        2
 70
     0
 43
1.0
 10
1755.0
 20
-629.9999999999999
 10
1665.0
 20
-629.9999999999999
  0
LWPOLYLINE
  5
D1F
330
1F
100
AcDbEntity
  8
floor 1 walls
100
AcDbPolyline
 90
        2
 70
     0
 43
1.0
 10
1640.0
 20
-629.9999999999999
 10
1555.0
 20
-629.9999999999999
  0
LWPOLYLINE
  5
D20
330
1F
100
AcDbEntity
  8
floor 1 walls
100
AcDbPolyline
 90
        2
 70
     0
 43
1.0
 10
1530.0
 20
-629.9999999999999
 10
1440.0
 20
-629.9999999999999
  0
LWPOLYLINE
  5
D21
330
1F
100
AcDbEntity
  8
floor 1 walls
100
AcDbPolyline
 90
        2
 70
     0
 43
1.0
 10
1415.0
 20
-629.9999999999999
 10
1325.0
 20
-629.9999999999999
  0
LWPOLYLINE
  5
D22
330
1F
100
AcDbEntity
  8
floor 1 walls
100
AcDbPolyline
 90
        2
 70
     0
 43
1.0
 10
1300.0
 20
-629.9999999999999
 10
1210.0
 20
-629.9999999999999
  0
LWPOLYLINE
  5
D23
330
1F
100
AcDbEntity
  8
floor 1 walls
100
AcDbPolyline
 90
        2
 70
     0
 43
1.0
 10
1190.0
 20
-629.9999999999999
 10
1095.0
 20
-629.9999999999999
  0
LWPOLYLINE
  5
D24
330
1F
100
AcDbEntity
  8
floor 1 walls
100
AcDbPolyline
 90
        2
 70
     0
 43
1.0
 10
1075.0
 20
-629.9999999999999
 10
984.9999999999998
 20
-629.9999999999999
  0
LWPOLYLINE
  5
D25
330
1F
100
AcDbEntity
  8
floor 1 walls
100
AcDbPolyline
 90
        2
 70
     0
 43
1.0
 10
959.9999999999998
 20
-629.9999999999999
 10
869.9999999999999
 20
-629.9999999999999
  0
LWPOLYLINE
  5
D27
330
1F
100
AcDbEntity
  8
floor 1 walls
100
AcDbPolyline
 90
        2
 70
     0
 43
1.0
 10
844.9999999999999
 20
-629.9999999999999
 10
754.9999999999999
 20
-629.9999999999999
  0
LWPOLYLINE
  5
D28
330
1F
100
AcDbEntity
  8
floor 1 walls
100
AcDbPolyline
 90
        2
 70
     0
 43
1.0
 10
729.9999999999999
 20
-629.9999999999999
 10
664.9999999999998
 20
-629.9999999999999
  0
LWPOLYLINE
  5
D29
330
1F
100
AcDbEntity
  8
floor 1 walls
100
AcDbPolyline
 90
        2
 70
     0
 43
1.0
 10
679.9999999999999
 20
-549.9999999999999
 10
679.9999999999999
 20
-629.9999999999999
  0
LWPOLYLINE
  5
D31
330
1F
100
AcDbEntity
  8
floor 1 walls
100
AcDbPolyline
 90
        4
 70
     0
 43
1.0
 10
3585.0
 20
-674.9999999999999
 10
3610.0
 20
-674.9999999999999
 10
3610.0
 20
-794.9999999999999
 10
3585.0
 20
-794.9999999999999
  0
LWPOLYLINE
  5
D32
330
1F
100
AcDbEntity
  8
floor 1 walls
100
AcDbPolyline
 90
        3
 70
     0
 43
1.0
 10
3545.0
 20
-674.9999999999999
 10
3335.0
 20
-674.9999999999999
 10
3335.0
 20
-794.9999999999999
  0
LWPOLYLINE
  5
D33
330
1F
100
AcDbEntity
  8
floor 1 walls
100
AcDbPolyline
 90
        2
 70
     0
 43
1.0
 10
3365.0
 20
-794.9999999999999
 10
3545.0
 20
-794.9999999999999
  0
LWPOLYLINE
  5
D34
330
1F
100
AcDbEntity
  8
floor 1 walls
100
AcDbPolyline
 90
        2
 70
     0
 43
1.0
 10
3420.0
 20
-674.9999999999999
 10
3420.0
 20
-794.9999999999999
  0
LWPOLYLINE
  5
D35
330
1F
100
AcDbEntity
  8
floor 1 walls
100
AcDbPolyline
 90
        2
 70
     0
 43
1.0
 10
3545.0
 20
-674.9999999999999
 10
3545.0
 20
-794.9999999999999
  0
LWPOLYLINE
  5
D36
330
1F
100
AcDbEntity
  8
floor 1 walls
100
AcDbPolyline
 90
        2
 70
     0
 43
1.0
 10
3545.0
 20
-744.9999999999999
 10
3475.0
 20
-744.9999999999999
  0
LWPOLYLINE
  5
D37
330
1F
100
AcDbEntity
  8
floor 1 walls
100
AcDbPolyline
 90
        2
 70
     0
 43
1.0
 10
3475.0
 20
-674.9999999999999
 10
3475.0
 20
-794.9999999999999
  0
LWPOLYLINE
  5
D38
330
1F
100
AcDbEntity
  8
floor 1 walls
100
AcDbPolyline
 90
        2
 70
     0
 43
1.0
 10
1485.0
 20
-874.9999999999999
 10
1485.0
 20
-934.9999999999999
1001
PE_URL
1000
material=air
  0
LWPOLYLINE
  5
D39
330
1F
100
AcDbEntity
  8
floor 1 walls
100
AcDbPolyline
 90
        2
 70
     0
 43
1.0
 10
1620.0
 20
-874.9999999999999
 10
1620.0
 20
-934.9999999999999
1001
PE_URL
1000
material=air
  0
LWPOLYLINE
  5
D3A
330
1F
100
AcDbEntity
  8
floor 1 walls
100
AcDbPolyline
 90
        2
 70
     0
 43
1.0
 10
1485.0
 20
-964.9999999999998
 10
1485.0
 20
-1050.0
1001
PE_URL
1000
material=air
  0
LWPOLYLINE
  5
D3B
330
1F
100
AcDbEntity
  8
floor 1 walls
100
AcDbPolyline
 90
        2
 70
     0
 43
1.0
 10
1620.0
 20
-964.9999999999998
 10
1620.0
 20
-1050.0
1001
PE_URL
1000
material=air
  0
LWPOLYLINE
  5
D3C
330
1F
100
AcDbEntity
  8
floor 1 walls
100
AcDbPolyline
 90
        2
 70
     0
 43
1.0
 10
1485.0
 20
-1080.0
 10
1485.0
 20
-1165.0
1001
PE_URL
1000
material=air
  0
LWPOLYLINE
  5
D3D
330
1F
100
AcDbEntity
  8
floor 1 walls
100
AcDbPolyline
 90
        2
 70
     0
 43
1.0
 10
1620.0
 20
-1080.0
 10
1620.0
 20
-1170.0
1001
PE_URL
1000
material=air
  0
LWPOLYLINE
  5
D3E
330
1F
100
AcDbEntity
  8
floor 1 walls
100
AcDbPolyline
 90
        2
 70
     0
 43
1.0
 10
1650.0
 20
-1065.0
 10
1715.0
 20
-1065.0
1001
PE_URL
1000
material=air
  0
LWPOLYLINE
  5
D3F
330
1F
100
AcDbEntity
  8
floor 1 walls
100
AcDbPolyline
 90
        2
 70
     0
 43
1.0
 10
1650.0
 20
-954.9999999999999
 10
1720.0
 20
-954.9999999999999
1001
PE_URL
1000
material=air
  0
LWPOLYLINE
  5
D40
330
1F
100
AcDbEntity
  8
floor 1 walls
100
AcDbPolyline
 90
        2
 70
     0
 43
1.0
 10
1455.0
 20
-1065.0
 10
1390.0
 20
-1065.0
1001
PE_URL
1000
material=air
  0
LWPOLYLINE
  5
D41
330
1F
100
AcDbEntity
  8
floor 1 walls
100
AcDbPolyline
 90
        2
 70
     0
 43
1.0
 10
1455.0
 20
-954.9999999999999
 10
1390.0
 20
-954.9999999999999
1001
PE_URL
1000
material=air
  0
LWPOLYLINE
  5
D49
330
1F
100
AcDbEntity
  8
floor 2 walls
100
AcDbPolyline
 90
        3
 70
     0
 43
1.0
 10
3904.999999999999
 20
-1725.0
 10
3989.999999999999
 20
-1725.0
 10
3989.999999999999
 20
-1930.0
  0
LWPOLYLINE
  5
D4A
330
1F
100
AcDbEntity
  8
floor 2 walls
100
AcDbPolyline
 90
        4
 70
     0
 43
1.0
 10
3904.999999999999
 20
-1725.0
 10
3904.999999999999
 20
-1775.0
 10
3904.999999999999
 20
-1860.0
 10
3899.999999999999
 20
-1860.0
  0
LWPOLYLINE
  5
D4B
330
1F
100
AcDbEntity
  8
floor 2 walls
100
AcDbPolyline
 90
        4
 70
     0
 43
1.0
 10
3904.999999999999
 20
-1780.0
 10
3825.0
 20
-1780.0
 10
3825.0
 20
-1730.0
 10
3580.0
 20
-1730.0
  0
LWPOLYLINE
  5
D4C
330
1F
100
AcDbEntity
  8
floor 2 walls
100
AcDbPolyline
 90
        3
 70
     0
 43
1.0
 10
3825.0
 20
-1780.0
 10
3825.0
 20
-1860.0
 10
3864.999999999999
 20
-1860.0
  0
LWPOLYLINE
  5
D4D
330
1F
100
AcDbEntity
  8
floor 2 walls
100
AcDbPolyline
 90
        3
 70
     0
 43
1.0
 10
3825.0
 20
-1860.0
 10
3820.0
 20
-1860.0
 10
3820.0
 20
-1865.0
  0
LWPOLYLINE
  5
D4E
330
1F
100
AcDbEntity
  8
floor 2 walls
100
AcDbPolyline
 90
        2
 70
     0
 43
1.0
 10
3820.0
 20
-1860.0
 10
3750.0
 20
-1860.0
  0
LWPOLYLINE
  5
D4F
330
1F
100
AcDbEntity
  8
floor 2 walls
100
AcDbPolyline
 90
        2
 70
     0
 43
1.0
 10
3720.0
 20
-1860.0
 10
3635.0
 20
-1860.0
  0
LWPOLYLINE
  5
D50
330
1F
100
AcDbEntity
  8
floor 2 walls
100
AcDbPolyline
 90
        2
 70
     0
 43
1.0
 10
3944.999999999999
 20
-1775.0
 10
3944.999999999999
 20
-1850.0
  0
LWPOLYLINE
  5
D51
330
1F
100
AcDbEntity
  8
floor 2 walls
100
AcDbPolyline
 90
        2
 70
     0
 43
1.0
 10
3820.0
 20
-1900.0
 10
3820.0
 20
-2040.0
  0
LWPOLYLINE
  5
D52
330
1F
100
AcDbEntity
  8
floor 2 walls
100
AcDbPolyline
 90
        2
 70
     0
 43
1.0
 10
3909.999999999999
 20
-1895.0
 10
3909.999999999999
 20
-1950.0
  0
LWPOLYLINE
  5
D53
330
1F
100
AcDbEntity
  8
floor 2 walls
100
AcDbPolyline
 90
        2
 70
     0
 43
1.0
 10
3909.999999999999
 20
-1910.0
 10
3989.999999999999
 20
-1910.0
  0
LWPOLYLINE
  5
D54
330
1F
100
AcDbEntity
  8
floor 2 walls
100
AcDbPolyline
 90
        2
 70
     0
 43
1.0
 10
3909.999999999999
 20
-1985.0
 10
3909.999999999999
 20
-2025.0
  0
LWPOLYLINE
  5
D55
330
1F
100
AcDbEntity
  8
floor 2 walls
100
AcDbPolyline
 90
        2
 70
     0
 43
1.0
 10
3909.999999999999
 20
-2050.0
 10
3909.999999999999
 20
-2120.0
  0
LWPOLYLINE
  5
D57
330
1F
100
AcDbEntity
  8
floor 2 walls
100
AcDbPolyline
 90
        3
 70
     0
 43
1.0
 10
3909.999999999999
 20
-2155.0
 10
3989.999999999999
 20
-2155.0
 10
3989.999999999999
 20
-1930.0
  0
LWPOLYLINE
  5
D59
330
1F
100
AcDbEntity
  8
floor 2 walls
100
AcDbPolyline
 90
        2
 70
     0
 43
1.0
 10
3909.999999999999
 20
-1985.0
 10
3989.999999999999
 20
-1985.0
  0
LWPOLYLINE
  5
D5A
330
1F
100
AcDbEntity
  8
floor 2 walls
100
AcDbPolyline
 90
        2
 70
     0
 43
1.0
 10
3909.999999999999
 20
-2085.0
 10
3989.999999999999
 20
-2085.0
  0
LWPOLYLINE
  5
D5B
330
1F
100
AcDbEntity
  8
floor 2 walls
100
AcDbPolyline
 90
        3
 70
     0
 43
1.0
 10
3909.999999999999
 20
-2155.0
 10
3825.0
 20
-2155.0
 10
3825.0
 20
-2070.0
  0
LWPOLYLINE
  5
D5C
330
1F
100
AcDbEntity
  8
floor 2 walls
100
AcDbPolyline
 90
        8
 70
     0
 43
1.0
 10
3825.0
 20
-2155.0
 10
3825.0
 20
-2435.0
 10
3445.0
 20
-2435.0
 10
3445.0
 20
-2205.0
 10
3460.0
 20
-2205.0
 10
3460.0
 20
-2075.0
 10
3695.0
 20
-2075.0
 10
3695.0
 20
-2070.0
  0
LWPOLYLINE
  5
D5D
330
1F
100
AcDbEntity
  8
floor 2 walls
100
AcDbPolyline
 90
        4
 70
     0
 43
1.0
 10
3695.0
 20
-2040.0
 10
3695.0
 20
-2030.0
 10
3715.0
 20
-2025.0
 10
3725.0
 20
-2020.0
  0
LWPOLYLINE
  5
D5F
330
1F
100
AcDbEntity
  8
floor 2 walls
100
AcDbPolyline
 90
       14
 70
     0
 43
1.0
 10
3745.0
 20
-2000.0
 10
3750.0
 20
-1990.0
 10
3755.0
 20
-1980.0
 10
3755.0
 20
-1965.0
 10
3755.0
 20
-1955.0
 10
3750.0
 20
-1940.0
 10
3745.0
 20
-1930.0
 10
3740.0
 20
-1925.0
 10
3730.0
 20
-1915.0
 10
3715.0
 20
-1910.0
 10
3700.0
 20
-1905.0
 10
3685.0
 20
-1905.0
 10
3665.0
 20
-1910.0
 10
3660.0
 20
-1915.0
  0
LWPOLYLINE
  5
D60
330
1F
100
AcDbEntity
  8
floor 2 walls
100
AcDbPolyline
 90
       10
 70
     0
 43
1.0
 10
3695.0
 20
-2030.0
 10
3675.0
 20
-2025.0
 10
3660.0
 20
-2020.0
 10
3650.0
 20
-2010.0
 10
3640.0
 20
-1995.0
 10
3635.0
 20
-1980.0
 10
3630.0
 20
-1965.0
 10
3630.0
 20
-1950.0
 10
3635.0
 20
-1940.0
 10
3640.0
 20
-1935.0
  0
LWPOLYLINE
  5
D61
330
1F
100
AcDbEntity
  8
floor 2 walls
100
AcDbPolyline
 90
        2
 70
     0
 43
1.0
 10
3605.0
 20
-1860.0
 10
3520.0
 20
-1860.0
  0
LWPOLYLINE
  5
D62
330
1F
100
AcDbEntity
  8
floor 2 walls
100
AcDbPolyline
 90
        2
 70
     0
 43
1.0
 10
3580.0
 20
-1730.0
 10
1970.0
 20
-1730.0
  0
LWPOLYLINE
  5
D63
330
1F
100
AcDbEntity
  8
floor 2 walls
100
AcDbPolyline
 90
        2
 70
     0
 43
1.0
 10
3575.0
 20
-1730.0
 10
3575.0
 20
-1860.0
  0
LWPOLYLINE
  5
D64
330
1F
100
AcDbEntity
  8
floor 2 walls
100
AcDbPolyline
 90
        2
 70
     0
 43
1.0
 10
3575.0
 20
-1795.0
 10
3460.0
 20
-1795.0
  0
LWPOLYLINE
  5
D65
330
1F
100
AcDbEntity
  8
floor 2 walls
100
AcDbPolyline
 90
        3
 70
     0
 43
1.0
 10
3460.0
 20
-1730.0
 10
3460.0
 20
-1860.0
 10
3495.0
 20
-1860.0
  0
LWPOLYLINE
  5
D66
330
1F
100
AcDbEntity
  8
floor 2 walls
100
AcDbPolyline
 90
        9
 70
     0
 43
1.0
 10
3445.0
 20
-2205.0
 10
3120.0
 20
-2205.0
 10
3120.0
 20
-2435.0
 10
2815.0
 20
-2435.0
 10
2745.0
 20
-2435.0
 10
2745.0
 20
-2205.0
 10
2760.0
 20
-2205.0
 10
2760.0
 20
-2075.0
 10
2875.0
 20
-2075.0
  0
LWPOLYLINE
  5
D67
330
1F
100
AcDbEntity
  8
floor 2 walls
100
AcDbPolyline
 90
        2
 70
     0
 43
1.0
 10
2760.0
 20
-2075.0
 10
2730.0
 20
-2075.0
  0
LWPOLYLINE
  5
D68
330
1F
100
AcDbEntity
  8
floor 2 walls
100
AcDbPolyline
 90
        4
 70
     0
 43
1.0
 10
2700.0
 20
-2075.0
 10
2670.0
 20
-2075.0
 10
2670.0
 20
-2205.0
 10
2755.0
 20
-2205.0
  0
LWPOLYLINE
  5
D69
330
1F
100
AcDbEntity
  8
floor 2 walls
100
AcDbPolyline
 90
        2
 70
     0
 43
1.0
 10
2645.0
 20
-2075.0
 10
2565.0
 20
-2075.0
  0
LWPOLYLINE
  5
D6A
330
1F
100
AcDbEntity
  8
floor 2 walls
100
AcDbPolyline
 90
        2
 70
     0
 43
1.0
 10
2530.0
 20
-2075.0
 10
2450.0
 20
-2075.0
  0
LWPOLYLINE
  5
D6B
330
1F
100
AcDbEntity
  8
floor 2 walls
100
AcDbPolyline
 90
        2
 70
     0
 43
1.0
 10
2410.0
 20
-2075.0
 10
2330.0
 20
-2075.0
  0
LWPOLYLINE
  5
D6C
330
1F
100
AcDbEntity
  8
floor 2 walls
100
AcDbPolyline
 90
        5
 70
     0
 43
1.0
 10
2670.0
 20
-2205.0
 10
2420.0
 20
-2205.0
 10
2420.0
 20
-2435.0
 10
2050.0
 20
-2435.0
 10
2050.0
 20
-2075.0
  0
LWPOLYLINE
  5
D6D
330
1F
100
AcDbEntity
  8
floor 2 walls
100
AcDbPolyline
 90
        2
 70
     0
 43
1.0
 10
2065.0
 20
-2075.0
 10
2130.0
 20
-2075.0
  0
LWPOLYLINE
  5
D6E
330
1F
100
AcDbEntity
  8
floor 2 walls
100
AcDbPolyline
 90
        5
 70
     0
 43
1.0
 10
2175.0
 20
-2075.0
 10
2295.0
 20
-2075.0
 10
2295.0
 20
-2305.0
 10
2175.0
 20
-2305.0
 10
2175.0
 20
-2205.0
  0
LWPOLYLINE
  5
D6F
330
1F
100
AcDbEntity
  8
floor 2 walls
100
AcDbPolyline
 90
        2
 70
     0
 43
1.0
 10
2175.0
 20
-2075.0
 10
2175.0
 20
-2170.0
  0
LWPOLYLINE
  5
D70
330
1F
100
AcDbEntity
  8
floor 2 walls
100
AcDbPolyline
 90
        2
 70
     0
 43
1.0
 10
2295.0
 20
-2135.0
 10
2175.0
 20
-2135.0
  0
LWPOLYLINE
  5
D72
330
1F
100
AcDbEntity
  8
floor 2 walls
100
AcDbPolyline
 90
        2
 70
     0
 43
1.0
 10
1970.0
 20
-1730.0
 10
1970.0
 20
-1785.0
  0
LWPOLYLINE
  5
D73
330
1F
100
AcDbEntity
  8
floor 2 walls
100
AcDbPolyline
 90
        3
 70
     0
 43
1.0
 10
1970.0
 20
-1785.0
 10
1970.0
 20
-1860.0
 10
2090.0
 20
-1860.0
  0
LWPOLYLINE
  5
D74
330
1F
100
AcDbEntity
  8
floor 2 walls
100
AcDbPolyline
 90
        3
 70
     0
 43
1.0
 10
1970.0
 20
-1780.0
 10
1885.0
 20
-1780.0
 10
1885.0
 20
-1730.0
  0
LWPOLYLINE
  5
D75
330
1F
100
AcDbEntity
  8
floor 2 walls
100
AcDbPolyline
 90
        2
 70
     0
 43
1.0
 10
1970.0
 20
-1860.0
 10
1925.0
 20
-1860.0
  0
LWPOLYLINE
  5
D76
330
1F
100
AcDbEntity
  8
floor 2 walls
100
AcDbPolyline
 90
        3
 70
     0
 43
1.0
 10
1885.0
 20
-1780.0
 10
1885.0
 20
-1860.0
 10
1890.0
 20
-1860.0
  0
LWPOLYLINE
  5
D77
330
1F
100
AcDbEntity
  8
floor 2 walls
100
AcDbPolyline
 90
        2
 70
     0
 43
1.0
 10
1945.0
 20
-1780.0
 10
1945.0
 20
-1860.0
  0
LWPOLYLINE
  5
D7B
330
1F
100
AcDbEntity
  8
floor 2 walls
100
AcDbPolyline
 90
        3
 70
     0
 43
1.0
 10
3110.0
 20
-1730.0
 10
3110.0
 20
-1860.0
 10
3050.0
 20
-1860.0
  0
LWPOLYLINE
  5
D7C
330
1F
100
AcDbEntity
  8
floor 2 walls
100
AcDbPolyline
 90
        3
 70
     0
 43
1.0
 10
2995.0
 20
-1730.0
 10
2995.0
 20
-1860.0
 10
2935.0
 20
-1860.0
  0
LWPOLYLINE
  5
D7D
330
1F
100
AcDbEntity
  8
floor 2 walls
100
AcDbPolyline
 90
        2
 70
     0
 43
1.0
 10
2995.0
 20
-1860.0
 10
3020.0
 20
-1860.0
  0
LWPOLYLINE
  5
D7E
330
1F
100
AcDbEntity
  8
floor 2 walls
100
AcDbPolyline
 90
        2
 70
     0
 43
1.0
 10
2905.0
 20
-1860.0
 10
2815.0
 20
-1860.0
  0
LWPOLYLINE
  5
D7F
330
1F
100
AcDbEntity
  8
floor 2 walls
100
AcDbPolyline
 90
        3
 70
     0
 43
1.0
 10
2760.0
 20
-1730.0
 10
2760.0
 20
-1860.0
 10
2790.0
 20
-1860.0
  0
LWPOLYLINE
  5
D80
330
1F
100
AcDbEntity
  8
floor 2 walls
100
AcDbPolyline
 90
        2
 70
     0
 43
1.0
 10
2125.0
 20
-1860.0
 10
2205.0
 20
-1860.0
  0
LWPOLYLINE
  5
D81
330
1F
100
AcDbEntity
  8
floor 2 walls
100
AcDbPolyline
 90
        2
 70
     0
 43
1.0
 10
2240.0
 20
-1860.0
 10
2320.0
 20
-1860.0
  0
LWPOLYLINE
  5
D82
330
1F
100
AcDbEntity
  8
floor 2 walls
100
AcDbPolyline
 90
        3
 70
     0
 43
1.0
 10
2350.0
 20
-1860.0
 10
2410.0
 20
-1860.0
 10
2410.0
 20
-1730.0
  0
LWPOLYLINE
  5
D83
330
1F
100
AcDbEntity
  8
floor 2 walls
100
AcDbPolyline
 90
        2
 70
     0
 43
1.0
 10
3440.0
 20
-1905.0
 10
3575.0
 20
-1905.0
  0
LWPOLYLINE
  5
D84
330
1F
100
AcDbEntity
  8
floor 2 walls
100
AcDbPolyline
 90
        2
 70
     0
 43
1.0
 10
3575.0
 20
-1940.0
 10
3575.0
 20
-1995.0
  0
LWPOLYLINE
  5
D85
330
1F
100
AcDbEntity
  8
floor 2 walls
100
AcDbPolyline
 90
        3
 70
     0
 43
1.0
 10
3575.0
 20
-2030.0
 10
3440.0
 20
-2030.0
 10
3440.0
 20
-1905.0
  0
LWPOLYLINE
  5
D86
330
1F
100
AcDbEntity
  8
floor 2 walls
100
AcDbPolyline
 90
        2
 70
     0
 43
1.0
 10
3505.0
 20
-1905.0
 10
3505.0
 20
-2030.0
  0
LWPOLYLINE
  5
D87
330
1F
100
AcDbEntity
  8
floor 2 walls
100
AcDbPolyline
 90
        2
 70
     0
 43
1.0
 10
3575.0
 20
-1980.0
 10
3505.0
 20
-1980.0
  0
LWPOLYLINE
  5
D88
330
1F
100
AcDbEntity
  8
floor 2 walls
100
AcDbPolyline
 90
        4
 70
     0
 43
1.0
 10
2995.0
 20
-2075.0
 10
3110.0
 20
-2075.0
 10
3110.0
 20
-2205.0
 10
3120.0
 20
-2205.0
  0
LWPOLYLINE
  5
D89
330
1F
100
AcDbEntity
  8
floor 2 walls
100
AcDbPolyline
 90
        2
 70
     0
 43
1.0
 10
3155.0
 20
-2075.0
 10
3215.0
 20
-2075.0
  0
LWPOLYLINE
  5
D8A
330
1F
100
AcDbEntity
  8
floor 2 walls
100
AcDbPolyline
 90
        2
 70
     0
 43
1.0
 10
3245.0
 20
-2075.0
 10
3325.0
 20
-2075.0
  0
LWPOLYLINE
  5
D8B
330
1F
100
AcDbEntity
  8
floor 2 walls
100
AcDbPolyline
 90
        4
 70
     0
 43
1.0
 10
3365.0
 20
-2075.0
 10
3410.0
 20
-2075.0
 10
3410.0
 20
-2075.0
 10
3420.0
 20
-2075.0
  0
LWPOLYLINE
  5
D8C
330
1F
100
AcDbEntity
  8
floor 2 walls
100
AcDbPolyline
 90
        2
 70
     0
 43
1.0
 10
1885.0
 20
-1730.0
 10
1035.0
 20
-1730.0
  0
LWPOLYLINE
  5
D8D
330
1F
100
AcDbEntity
  8
floor 2 walls
100
AcDbPolyline
 90
        3
 70
     0
 43
1.0
 10
1805.0
 20
-1730.0
 10
1805.0
 20
-1860.0
 10
1740.0
 20
-1860.0
  0
LWPOLYLINE
  5
D8E
330
1F
100
AcDbEntity
  8
floor 2 walls
100
AcDbPolyline
 90
        2
 70
     0
 43
1.0
 10
1805.0
 20
-1895.0
 10
1805.0
 20
-1920.0
  0
LWPOLYLINE
  5
D8F
330
1F
100
AcDbEntity
  8
floor 2 walls
100
AcDbPolyline
 90
        2
 70
     0
 43
1.0
 10
1965.0
 20
-1895.0
 10
1965.0
 20
-1950.0
  0
LWPOLYLINE
  5
D90
330
1F
100
AcDbEntity
  8
floor 2 walls
100
AcDbPolyline
 90
        2
 70
     0
 43
1.0
 10
1965.0
 20
-1905.0
 10
1805.0
 20
-1905.0
  0
LWPOLYLINE
  5
D91
330
1F
100
AcDbEntity
  8
floor 2 walls
100
AcDbPolyline
 90
        3
 70
     0
 43
1.0
 10
1965.0
 20
-1980.0
 10
1805.0
 20
-1980.0
 10
1805.0
 20
-1960.0
  0
LWPOLYLINE
  5
D92
330
1F
100
AcDbEntity
  8
floor 2 walls
100
AcDbPolyline
 90
        4
 70
     0
 43
1.0
 10
1805.0
 20
-1980.0
 10
1805.0
 20
-2030.0
 10
1965.0
 20
-2030.0
 10
1965.0
 20
-1980.0
  0
LWPOLYLINE
  5
D93
330
1F
100
AcDbEntity
  8
floor 2 walls
100
AcDbPolyline
 90
        4
 70
     0
 43
1.0
 10
1965.0
 20
-2055.0
 10
1965.0
 20
-2075.0
 10
1805.0
 20
-2075.0
 10
1805.0
 20
-2060.0
  0
LWPOLYLINE
  5
D94
330
1F
100
AcDbEntity
  8
floor 2 walls
100
AcDbPolyline
 90
        3
 70
     0
 43
1.0
 10
1885.0
 20
-1905.0
 10
1885.0
 20
-2205.0
 10
2050.0
 20
-2205.0
  0
LWPOLYLINE
  5
D95
330
1F
100
AcDbEntity
  8
floor 2 walls
100
AcDbPolyline
 90
        3
 70
     0
 43
1.0
 10
1965.0
 20
-2175.0
 10
1965.0
 20
-2110.0
 10
1965.0
 20
-2105.0
  0
LWPOLYLINE
  5
D96
330
1F
100
AcDbEntity
  8
floor 2 walls
100
AcDbPolyline
 90
        2
 70
     0
 43
1.0
 10
1805.0
 20
-2105.0
 10
1805.0
 20
-2175.0
  0
LWPOLYLINE
  5
D97
330
1F
100
AcDbEntity
  8
floor 2 walls
100
AcDbPolyline
 90
        2
 70
     0
 43
1.0
 10
1805.0
 20
-2140.0
 10
1965.0
 20
-2140.0
  0
LWPOLYLINE
  5
D98
330
1F
100
AcDbEntity
  8
floor 2 walls
100
AcDbPolyline
 90
        4
 70
     0
 43
1.0
 10
1885.0
 20
-2205.0
 10
1720.0
 20
-2205.0
 10
1720.0
 20
-2075.0
 10
1630.0
 20
-2075.0
  0
LWPOLYLINE
  5
D99
330
1F
100
AcDbEntity
  8
floor 2 walls
100
AcDbPolyline
 90
        2
 70
     0
 43
1.0
 10
1690.0
 20
-1860.0
 10
1605.0
 20
-1860.0
  0
LWPOLYLINE
  5
D9A
330
1F
100
AcDbEntity
  8
floor 2 walls
100
AcDbPolyline
 90
        2
 70
     0
 43
1.0
 10
1580.0
 20
-1860.0
 10
1490.0
 20
-1860.0
  0
LWPOLYLINE
  5
D9B
330
1F
100
AcDbEntity
  8
floor 2 walls
100
AcDbPolyline
 90
        2
 70
     0
 43
1.0
 10
1450.0
 20
-1860.0
 10
1385.0
 20
-1860.0
  0
LWPOLYLINE
  5
D9C
330
1F
100
AcDbEntity
  8
floor 2 walls
100
AcDbPolyline
 90
        3
 70
     0
 43
1.0
 10
1360.0
 20
-1730.0
 10
1360.0
 20
-1860.0
 10
1300.0
 20
-1860.0
  0
LWPOLYLINE
  5
D9D
330
1F
100
AcDbEntity
  8
floor 2 walls
100
AcDbPolyline
 90
        2
 70
     0
 43
1.0
 10
1270.0
 20
-1860.0
 10
1180.0
 20
-1860.0
  0
LWPOLYLINE
  5
D9E
330
1F
100
AcDbEntity
  8
floor 2 walls
100
AcDbPolyline
 90
        4
 70
     0
 43
1.0
 10
1420.0
 20
-1905.0
 10
1565.0
 20
-1905.0
 10
1565.0
 20
-2030.0
 10
1535.0
 20
-2030.0
  0
LWPOLYLINE
  5
D9F
330
1F
100
AcDbEntity
  8
floor 2 walls
100
AcDbPolyline
 90
        3
 70
     0
 43
1.0
 10
1420.0
 20
-1905.0
 10
1420.0
 20
-2030.0
 10
1505.0
 20
-2030.0
  0
LWPOLYLINE
  5
DA0
330
1F
100
AcDbEntity
  8
floor 2 walls
100
AcDbPolyline
 90
        9
 70
     0
 43
1.0
 10
1720.0
 20
-2205.0
 10
1720.0
 20
-2440.0
 10
1345.0
 20
-2440.0
 10
1345.0
 20
-2205.0
 10
1020.0
 20
-2205.0
 10
1020.0
 20
-2440.0
 10
644.9999999999999
 20
-2440.0
 10
644.9999999999999
 20
-2075.0
 10
734.9999999999999
 20
-2075.0
  0
LWPOLYLINE
  5
DA1
330
1F
100
AcDbEntity
  8
floor 2 walls
100
AcDbPolyline
 90
        2
 70
     0
 43
1.0
 10
779.9999999999999
 20
-2075.0
 10
889.9999999999999
 20
-2075.0
  0
LWPOLYLINE
  5
DA2
330
1F
100
AcDbEntity
  8
floor 2 walls
100
AcDbPolyline
 90
        2
 70
     0
 43
1.0
 10
934.9999999999999
 20
-2075.0
 10
1035.0
 20
-2075.0
  0
LWPOLYLINE
  5
DA3
330
1F
100
AcDbEntity
  8
floor 2 walls
100
AcDbPolyline
 90
        2
 70
     0
 43
1.0
 10
1110.0
 20
-2075.0
 10
1260.0
 20
-2075.0
  0
LWPOLYLINE
  5
DA4
330
1F
100
AcDbEntity
  8
floor 2 walls
100
AcDbPolyline
 90
        2
 70
     0
 43
1.0
 10
1350.0
 20
-2075.0
 10
1435.0
 20
-2075.0
  0
LWPOLYLINE
  5
DA5
330
1F
100
AcDbEntity
  8
floor 2 walls
100
AcDbPolyline
 90
        2
 70
     0
 43
1.0
 10
1475.0
 20
-2075.0
 10
1585.0
 20
-2075.0
  0
LWPOLYLINE
  5
DA6
330
1F
100
AcDbEntity
  8
floor 2 walls
100
AcDbPolyline
 90
        2
 70
     0
 43
1.0
 10
1140.0
 20
-1905.0
 10
1170.0
 20
-1905.0
  0
LWPOLYLINE
  5
DA7
330
1F
100
AcDbEntity
  8
floor 2 walls
100
AcDbPolyline
 90
        2
 70
     0
 43
1.0
 10
1140.0
 20
-1905.0
 10
1140.0
 20
-1995.0
  0
LWPOLYLINE
  5
DA8
330
1F
100
AcDbEntity
  8
floor 2 walls
100
AcDbPolyline
 90
        4
 70
     0
 43
1.0
 10
1140.0
 20
-2030.0
 10
1250.0
 20
-2030.0
 10
1250.0
 20
-1905.0
 10
1200.0
 20
-1905.0
  0
LWPOLYLINE
  5
DA9
330
1F
100
AcDbEntity
  8
floor 2 walls
100
AcDbPolyline
 90
        2
 70
     0
 43
1.0
 10
1200.0
 20
-1905.0
 10
1200.0
 20
-2030.0
  0
LWPOLYLINE
  5
DAA
330
1F
100
AcDbEntity
  8
floor 2 walls
100
AcDbPolyline
 90
        2
 70
     0
 43
1.0
 10
1140.0
 20
-1970.0
 10
1200.0
 20
-1970.0
  0
LWPOLYLINE
  5
DAB
330
1F
100
AcDbEntity
  8
floor 2 walls
100
AcDbPolyline
 90
        5
 70
     0
 43
1.0
 10
804.9999999999999
 20
-1910.0
 10
804.9999999999999
 20
-1905.0
 10
964.9999999999998
 20
-1905.0
 10
964.9999999999998
 20
-2030.0
 10
864.9999999999999
 20
-2030.0
  0
LWPOLYLINE
  5
DAC
330
1F
100
AcDbEntity
  8
floor 2 walls
100
AcDbPolyline
 90
        3
 70
     0
 43
1.0
 10
834.9999999999999
 20
-2030.0
 10
804.9999999999999
 20
-2030.0
 10
804.9999999999999
 20
-1910.0
  0
LWPOLYLINE
  5
DAD
330
1F
100
AcDbEntity
  8
floor 2 walls
100
AcDbPolyline
 90
        6
 70
     0
 43
1.0
 10
644.9999999999999
 20
-2160.0
 10
479.9999999999999
 20
-2160.0
 10
479.9999999999999
 20
-1730.0
 10
559.9999999999999
 20
-1730.0
 10
559.9999999999999
 20
-1860.0
 10
569.9999999999999
 20
-1860.0
  0
LWPOLYLINE
  5
DAE
330
1F
100
AcDbEntity
  8
floor 2 walls
100
AcDbPolyline
 90
        2
 70
     0
 43
1.0
 10
604.9999999999999
 20
-1860.0
 10
759.9999999999999
 20
-1860.0
  0
LWPOLYLINE
  5
DAF
330
1F
100
AcDbEntity
  8
floor 2 walls
100
AcDbPolyline
 90
        2
 70
     0
 43
1.0
 10
1070.0
 20
-1860.0
 10
1160.0
 20
-1860.0
  0
LWPOLYLINE
  5
DB0
330
1F
100
AcDbEntity
  8
floor 2 walls
100
AcDbPolyline
 90
        2
 70
     0
 43
1.0
 10
919.9999999999999
 20
-1860.0
 10
1040.0
 20
-1860.0
  0
LWPOLYLINE
  5
DB1
330
1F
100
AcDbEntity
  8
floor 2 walls
100
AcDbPolyline
 90
        2
 70
     0
 43
1.0
 10
789.9999999999999
 20
-1860.0
 10
874.9999999999999
 20
-1860.0
  0
LWPOLYLINE
  5
DB2
330
1F
100
AcDbEntity
  8
floor 2 walls
100
AcDbPolyline
 90
        4
 70
     0
 43
1.0
 10
559.9999999999999
 20
-1775.0
 10
644.9999999999999
 20
-1775.0
 10
644.9999999999999
 20
-1730.0
 10
1035.0
 20
-1730.0
  0
LWPOLYLINE
  5
DB3
330
1F
100
AcDbEntity
  8
floor 2 walls
100
AcDbPolyline
 90
        2
 70
     0
 43
1.0
 10
644.9999999999999
 20
-1775.0
 10
644.9999999999999
 20
-1860.0
  0
LWPOLYLINE
  5
DB4
330
1F
100
AcDbEntity
  8
floor 2 walls
100
AcDbPolyline
 90
        2
 70
     0
 43
1.0
 10
524.9999999999999
 20
-1770.0
 10
524.9999999999999
 20
-1850.0
  0
LWPOLYLINE
  5
DB7
330
1F
100
AcDbEntity
  8
floor 2 walls
100
AcDbPolyline
 90
        2
 70
     0
 43
1.0
 10
559.9999999999999
 20
-1895.0
 10
559.9999999999999
 20
-1925.0
  0
LWPOLYLINE
  5
DB8
330
1F
100
AcDbEntity
  8
floor 2 walls
100
AcDbPolyline
 90
        2
 70
     0
 43
1.0
 10
559.9999999999999
 20
-1910.0
 10
479.9999999999999
 20
-1910.0
  0
LWPOLYLINE
  5
DB9
330
1F
100
AcDbEntity
  8
floor 2 walls
100
AcDbPolyline
 90
        2
 70
     0
 43
1.0
 10
769.9999999999999
 20
-1905.0
 10
689.9999999999999
 20
-1905.0
  0
LWPOLYLINE
  5
DBA
330
1F
100
AcDbEntity
  8
floor 2 walls
100
AcDbPolyline
 90
        2
 70
     0
 43
1.0
 10
639.9999999999999
 20
-1910.0
 10
639.9999999999999
 20
-2020.0
  0
LWPOLYLINE
  5
DBB
330
1F
100
AcDbEntity
  8
floor 2 walls
100
AcDbPolyline
 90
        2
 70
     0
 43
1.0
 10
559.9999999999999
 20
-1955.0
 10
559.9999999999999
 20
-2020.0
  0
LWPOLYLINE
  5
DBC
330
1F
100
AcDbEntity
  8
floor 2 walls
100
AcDbPolyline
 90
        2
 70
     0
 43
1.0
 10
559.9999999999999
 20
-1980.0
 10
479.9999999999999
 20
-1980.0
  0
LWPOLYLINE
  5
DBD
330
1F
100
AcDbEntity
  8
floor 2 walls
100
AcDbPolyline
 90
        2
 70
     0
 43
1.0
 10
559.9999999999999
 20
-2020.0
 10
479.9999999999999
 20
-2020.0
  0
LWPOLYLINE
  5
DBE
330
1F
100
AcDbEntity
  8
floor 2 walls
100
AcDbPolyline
 90
        2
 70
     0
 43
1.0
 10
559.9999999999999
 20
-2050.0
 10
559.9999999999999
 20
-2120.0
  0
LWPOLYLINE
  5
DBF
330
1F
100
AcDbEntity
  8
floor 2 walls
100
AcDbPolyline
 90
        2
 70
     0
 43
1.0
 10
559.9999999999999
 20
-2150.0
 10
559.9999999999999
 20
-2160.0
  0
LWPOLYLINE
  5
DC0
330
1F
100
AcDbEntity
  8
floor 2 walls
100
AcDbPolyline
 90
        2
 70
     0
 43
1.0
 10
559.9999999999999
 20
-2085.0
 10
479.9999999999999
 20
-2085.0
  0
LWPOLYLINE
  5
DC2
330
1F
100
AcDbEntity
  8
floor 3 walls
100
AcDbPolyline
 90
        9
 70
     0
 43
1.0
 10
2190.0
 20
-2830.0
 10
3849.999999999999
 20
-2830.0
 10
3849.999999999999
 20
-2880.0
 10
3934.999999999999
 20
-2880.0
 10
3934.999999999999
 20
-2830.0
 10
4014.999999999999
 20
-2830.0
 10
4014.999999999999
 20
-3015.0
 10
3934.999999999999
 20
-3015.0
 10
3934.999999999999
 20
-3005.0
  0
LWPOLYLINE
  5
DC3
330
1F
100
AcDbEntity
  8
floor 3 walls
100
AcDbPolyline
 90
        2
 70
     0
 43
1.0
 10
3974.999999999999
 20
-2875.0
 10
3974.999999999999
 20
-2955.0
  0
LWPOLYLINE
  5
DC4
330
1F
100
AcDbEntity
  8
floor 3 walls
100
AcDbPolyline
 90
        3
 70
     0
 43
1.0
 10
3849.999999999999
 20
-2880.0
 10
3849.999999999999
 20
-2965.0
 10
3889.999999999999
 20
-2965.0
  0
LWPOLYLINE
  5
DC5
330
1F
100
AcDbEntity
  8
floor 3 walls
100
AcDbPolyline
 90
        3
 70
     0
 43
1.0
 10
3934.999999999999
 20
-2880.0
 10
3934.999999999999
 20
-2965.0
 10
3924.999999999999
 20
-2965.0
  0
LWPOLYLINE
  5
DC6
330
1F
100
AcDbEntity
  8
floor 3 walls
100
AcDbPolyline
 90
        3
 70
     0
 43
1.0
 10
3475.0
 20
-2830.0
 10
3475.0
 20
-2965.0
 10
3510.0
 20
-2965.0
  0
LWPOLYLINE
  5
DC7
330
1F
100
AcDbEntity
  8
floor 3 walls
100
AcDbPolyline
 90
        2
 70
     0
 43
1.0
 10
3540.0
 20
-2965.0
 10
3630.0
 20
-2965.0
  0
LWPOLYLINE
  5
DC8
330
1F
100
AcDbEntity
  8
floor 3 walls
100
AcDbPolyline
 90
        2
 70
     0
 43
1.0
 10
3595.0
 20
-2830.0
 10
3595.0
 20
-2965.0
  0
LWPOLYLINE
  5
DC9
330
1F
100
AcDbEntity
  8
floor 3 walls
100
AcDbPolyline
 90
        2
 70
     0
 43
1.0
 10
3595.0
 20
-2900.0
 10
3475.0
 20
-2900.0
  0
LWPOLYLINE
  5
DCA
330
1F
100
AcDbEntity
  8
floor 3 walls
100
AcDbPolyline
 90
        2
 70
     0
 43
1.0
 10
3655.0
 20
-2965.0
 10
3745.0
 20
-2965.0
  0
LWPOLYLINE
  5
DCB
330
1F
100
AcDbEntity
  8
floor 3 walls
100
AcDbPolyline
 90
        2
 70
     0
 43
1.0
 10
3780.0
 20
-2965.0
 10
3849.999999999999
 20
-2965.0
  0
LWPOLYLINE
  5
DCC
330
1F
100
AcDbEntity
  8
floor 3 walls
100
AcDbPolyline
 90
        4
 70
     0
 43
1.0
 10
3849.999999999999
 20
-3010.0
 10
3849.999999999999
 20
-3270.0
 10
4014.999999999999
 20
-3270.0
 10
4014.999999999999
 20
-3015.0
  0
LWPOLYLINE
  5
DCD
330
1F
100
AcDbEntity
  8
floor 3 walls
100
AcDbPolyline
 90
        2
 70
     0
 43
1.0
 10
3720.0
 20
-3185.0
 10
3849.999999999999
 20
-3185.0
  0
LWPOLYLINE
  5
DCF
330
1F
100
AcDbEntity
  8
floor 3 walls
100
AcDbPolyline
 90
        7
 70
     0
 43
1.0
 10
3849.999999999999
 20
-3270.0
 10
3849.999999999999
 20
-3555.0
 10
3465.0
 20
-3555.0
 10
3465.0
 20
-3320.0
 10
3480.0
 20
-3320.0
 10
3480.0
 20
-3185.0
 10
3595.0
 20
-3185.0
  0
LWPOLYLINE
  5
DD0
330
1F
100
AcDbEntity
  8
floor 3 walls
100
AcDbPolyline
 90
        2
 70
     0
 43
1.0
 10
3480.0
 20
-3185.0
 10
3270.0
 20
-3185.0
  0
LWPOLYLINE
  5
DD1
330
1F
100
AcDbEntity
  8
floor 3 walls
100
AcDbPolyline
 90
        7
 70
     0
 43
1.0
 10
3465.0
 20
-3320.0
 10
2415.0
 20
-3320.0
 10
2415.0
 20
-3555.0
 10
2030.0
 20
-3555.0
 10
2030.0
 20
-3185.0
 10
2165.0
 20
-3185.0
 10
2165.0
 20
-3230.0
  0
LWPOLYLINE
  5
DD2
330
1F
100
AcDbEntity
  8
floor 3 walls
100
AcDbPolyline
 90
        4
 70
     0
 43
1.0
 10
2415.0
 20
-3320.0
 10
2400.0
 20
-3320.0
 10
2400.0
 20
-3185.0
 10
2605.0
 20
-3185.0
  0
LWPOLYLINE
  5
DD3
330
1F
100
AcDbEntity
  8
floor 3 walls
100
AcDbPolyline
 90
        3
 70
     0
 43
1.0
 10
2645.0
 20
-3185.0
 10
2760.0
 20
-3185.0
 10
2760.0
 20
-3320.0
  0
LWPOLYLINE
  5
DD4
330
1F
100
AcDbEntity
  8
floor 3 walls
100
AcDbPolyline
 90
        2
 70
     0
 43
1.0
 10
2670.0
 20
-3185.0
 10
2670.0
 20
-3230.0
  0
LWPOLYLINE
  5
DD5
330
1F
100
AcDbEntity
  8
floor 3 walls
100
AcDbPolyline
 90
        2
 70
     0
 43
1.0
 10
2670.0
 20
-3275.0
 10
2670.0
 20
-3320.0
  0
LWPOLYLINE
  5
DD6
330
1F
100
AcDbEntity
  8
floor 3 walls
100
AcDbPolyline
 90
        2
 70
     0
 43
1.0
 10
2400.0
 20
-3185.0
 10
2285.0
 20
-3185.0
  0
LWPOLYLINE
  5
DD7
330
1F
100
AcDbEntity
  8
floor 3 walls
100
AcDbPolyline
 90
        2
 70
     0
 43
1.0
 10
1955.0
 20
-2830.0
 10
2405.0
 20
-2830.0
  0
LWPOLYLINE
  5
DD8
330
1F
100
AcDbEntity
  8
floor 3 walls
100
AcDbPolyline
 90
        3
 70
     0
 43
1.0
 10
1955.0
 20
-2830.0
 10
1955.0
 20
-2965.0
 10
2075.0
 20
-2965.0
  0
LWPOLYLINE
  5
DD9
330
1F
100
AcDbEntity
  8
floor 3 walls
100
AcDbPolyline
 90
        2
 70
     0
 43
1.0
 10
2105.0
 20
-2965.0
 10
2195.0
 20
-2965.0
  0
LWPOLYLINE
  5
DDA
330
1F
100
AcDbEntity
  8
floor 3 walls
100
AcDbPolyline
 90
        2
 70
     0
 43
1.0
 10
2225.0
 20
-2965.0
 10
2315.0
 20
-2965.0
  0
LWPOLYLINE
  5
DDB
330
1F
100
AcDbEntity
  8
floor 3 walls
100
AcDbPolyline
 90
        2
 70
     0
 43
1.0
 10
2405.0
 20
-2900.0
 10
2280.0
 20
-2900.0
  0
LWPOLYLINE
  5
DDC
330
1F
100
AcDbEntity
  8
floor 3 walls
100
AcDbPolyline
 90
        2
 70
     0
 43
1.0
 10
2280.0
 20
-2830.0
 10
2280.0
 20
-2965.0
  0
LWPOLYLINE
  5
DDD
330
1F
100
AcDbEntity
  8
floor 3 walls
100
AcDbPolyline
 90
        3
 70
     0
 43
1.0
 10
2340.0
 20
-2965.0
 10
2405.0
 20
-2965.0
 10
2405.0
 20
-2830.0
  0
LWPOLYLINE
  5
DDF
330
1F
100
AcDbEntity
  8
floor 3 walls
100
AcDbPolyline
 90
        3
 70
     0
 43
1.0
 10
2760.0
 20
-2830.0
 10
2760.0
 20
-2965.0
 10
2795.0
 20
-2965.0
  0
LWPOLYLINE
  5
DE0
330
1F
100
AcDbEntity
  8
floor 3 walls
100
AcDbPolyline
 90
        2
 70
     0
 43
1.0
 10
3000.0
 20
-2830.0
 10
3000.0
 20
-2965.0
  0
LWPOLYLINE
  5
DE1
330
1F
100
AcDbEntity
  8
floor 3 walls
100
AcDbPolyline
 90
        3
 70
     0
 43
1.0
 10
3060.0
 20
-2965.0
 10
3120.0
 20
-2965.0
 10
3120.0
 20
-2830.0
  0
LWPOLYLINE
  5
DE2
330
1F
100
AcDbEntity
  8
floor 3 walls
100
AcDbPolyline
 90
        2
 70
     0
 43
1.0
 10
2940.0
 20
-2965.0
 10
3035.0
 20
-2965.0
  0
LWPOLYLINE
  5
DE3
330
1F
100
AcDbEntity
  8
floor 3 walls
100
AcDbPolyline
 90
        2
 70
     0
 43
1.0
 10
2820.0
 20
-2965.0
 10
2915.0
 20
-2965.0
  0
LWPOLYLINE
  5
DE4
330
1F
100
AcDbEntity
  8
floor 3 walls
100
AcDbPolyline
 90
        9
 70
     0
 43
1.0
 10
3595.0
 20
-3015.0
 10
3125.0
 20
-3015.0
 10
3125.0
 20
-3035.0
 10
3180.0
 20
-3035.0
 10
3180.0
 20
-3070.0
 10
3125.0
 20
-3070.0
 10
3125.0
 20
-3135.0
 10
3430.0
 20
-3135.0
 10
3595.0
 20
-3135.0
  0
LWPOLYLINE
  5
DE5
330
1F
100
AcDbEntity
  8
floor 3 walls
100
AcDbPolyline
 90
        2
 70
     0
 43
1.0
 10
3595.0
 20
-3045.0
 10
3595.0
 20
-3105.0
  0
LWPOLYLINE
  5
DE6
330
1F
100
AcDbEntity
  8
floor 3 walls
100
AcDbPolyline
 90
        2
 70
     0
 43
1.0
 10
3595.0
 20
-3085.0
 10
3525.0
 20
-3085.0
  0
LWPOLYLINE
  5
DE7
330
1F
100
AcDbEntity
  8
floor 3 walls
100
AcDbPolyline
 90
        2
 70
     0
 43
1.0
 10
3525.0
 20
-3015.0
 10
3525.0
 20
-3135.0
  0
LWPOLYLINE
  5
DE8
330
1F
100
AcDbEntity
  8
floor 3 walls
100
AcDbPolyline
 90
        4
 70
     0
 43
1.0
 10
2280.0
 20
-3015.0
 10
2750.0
 20
-3015.0
 10
2750.0
 20
-3135.0
 10
2280.0
 20
-3135.0
  0
LWPOLYLINE
  5
DE9
330
1F
100
AcDbEntity
  8
floor 3 walls
100
AcDbPolyline
 90
        2
 70
     0
 43
1.0
 10
2280.0
 20
-3050.0
 10
2280.0
 20
-3100.0
  0
LWPOLYLINE
  5
DEA
330
1F
100
AcDbEntity
  8
floor 3 walls
100
AcDbPolyline
 90
        2
 70
     0
 43
1.0
 10
2280.0
 20
-3085.0
 10
2355.0
 20
-3085.0
  0
LWPOLYLINE
  5
DEB
330
1F
100
AcDbEntity
  8
floor 3 walls
100
AcDbPolyline
 90
        2
 70
     0
 43
1.0
 10
2355.0
 20
-3020.0
 10
2355.0
 20
-3135.0
  0
LWPOLYLINE
  5
DEC
330
1F
100
AcDbEntity
  8
floor 3 walls
100
AcDbPolyline
 90
        3
 70
     0
 43
1.0
 10
2030.0
 20
-3320.0
 10
1700.0
 20
-3320.0
 10
1700.0
 20
-3185.0
  0
LWPOLYLINE
  5
DEE
330
1F
100
AcDbEntity
  8
floor 3 walls
100
AcDbPolyline
 90
        6
 70
     0
 43
1.0
 10
1875.0
 20
-2965.0
 10
1865.0
 20
-2965.0
 10
1865.0
 20
-2830.0
 10
594.9999999999999
 20
-2830.0
 10
594.9999999999999
 20
-2965.0
 10
594.9999999999999
 20
-2965.0
  0
LWPOLYLINE
  5
DEF
330
1F
100
AcDbEntity
  8
floor 3 walls
100
AcDbPolyline
 90
        2
 70
     0
 43
1.0
 10
1825.0
 20
-2875.0
 10
1825.0
 20
-2955.0
  0
LWPOLYLINE
  5
DF0
330
1F
100
AcDbEntity
  8
floor 3 walls
100
AcDbPolyline
 90
        3
 70
     0
 43
1.0
 10
1790.0
 20
-2830.0
 10
1790.0
 20
-2965.0
 10
1790.0
 20
-2965.0
  0
LWPOLYLINE
  5
DF4
330
1F
100
AcDbEntity
  8
floor 3 walls
100
AcDbPolyline
 90
        3
 70
     0
 43
1.0
 10
1330.0
 20
-2830.0
 10
1330.0
 20
-2965.0
 10
1270.0
 20
-2965.0
  0
LWPOLYLINE
  5
DF5
330
1F
100
AcDbEntity
  8
floor 3 walls
100
AcDbPolyline
 90
        2
 70
     0
 43
1.0
 10
1240.0
 20
-2965.0
 10
1150.0
 20
-2965.0
  0
LWPOLYLINE
  5
DF6
330
1F
100
AcDbEntity
  8
floor 3 walls
100
AcDbPolyline
 90
        2
 70
     0
 43
1.0
 10
1120.0
 20
-2965.0
 10
1030.0
 20
-2965.0
  0
LWPOLYLINE
  5
DF7
330
1F
100
AcDbEntity
  8
floor 3 walls
100
AcDbPolyline
 90
        2
 70
     0
 43
1.0
 10
1090.0
 20
-2900.0
 10
1090.0
 20
-2965.0
  0
LWPOLYLINE
  5
DF9
330
1F
100
AcDbEntity
  8
floor 3 walls
100
AcDbPolyline
 90
        4
 70
     0
 43
1.0
 10
1005.0
 20
-2965.0
 10
969.9999999999998
 20
-2965.0
 10
969.9999999999998
 20
-2905.0
 10
969.9999999999998
 20
-2900.0
  0
LWPOLYLINE
  5
DFA
330
1F
100
AcDbEntity
  8
floor 3 walls
100
AcDbPolyline
 90
        2
 70
     0
 43
1.0
 10
969.9999999999998
 20
-2900.0
 10
969.9999999999998
 20
-2830.0
  0
LWPOLYLINE
  5
DFB
330
1F
100
AcDbEntity
  8
floor 3 walls
100
AcDbPolyline
 90
        2
 70
     0
 43
1.0
 10
1090.0
 20
-2900.0
 10
969.9999999999998
 20
-2900.0
  0
LWPOLYLINE
  5
DFE
330
1F
100
AcDbEntity
  8
floor 3 walls
100
AcDbPolyline
 90
        2
 70
     0
 43
1.0
 10
594.9999999999999
 20
-2965.0
 10
554.9999999999999
 20
-2965.0
  0
LWPOLYLINE
  5
E00
330
1F
100
AcDbEntity
  8
floor 3 walls
100
AcDbPolyline
 90
        2
 70
     0
 43
1.0
 10
474.9999999999999
 20
-2875.0
 10
474.9999999999999
 20
-2955.0
  0
LWPOLYLINE
  5
E01
330
1F
100
AcDbEntity
  8
floor 3 walls
100
AcDbPolyline
 90
        3
 70
     0
 43
1.0
 10
514.9999999999999
 20
-2880.0
 10
514.9999999999999
 20
-2965.0
 10
519.9999999999999
 20
-2965.0
  0
LWPOLYLINE
  5
E02
330
1F
100
AcDbEntity
  8
floor 3 walls
100
AcDbPolyline
 90
        2
 70
     0
 43
1.0
 10
514.9999999999999
 20
-2965.0
 10
509.9999999999999
 20
-2965.0
  0
LWPOLYLINE
  5
E03
330
1F
100
AcDbEntity
  8
floor 3 walls
100
AcDbPolyline
 90
        2
 70
     0
 43
1.0
 10
509.9999999999999
 20
-3000.0
 10
509.9999999999999
 20
-3035.0
  0
LWPOLYLINE
  5
E04
330
1F
100
AcDbEntity
  8
floor 3 walls
100
AcDbPolyline
 90
        2
 70
     0
 43
1.0
 10
509.9999999999999
 20
-3010.0
 10
429.9999999999999
 20
-3010.0
  0
LWPOLYLINE
  5
E05
330
1F
100
AcDbEntity
  8
floor 3 walls
100
AcDbPolyline
 90
        3
 70
     0
 43
1.0
 10
509.9999999999999
 20
-3065.0
 10
509.9999999999999
 20
-3130.0
 10
429.9999999999999
 20
-3130.0
  0
LWPOLYLINE
  5
E06
330
1F
100
AcDbEntity
  8
floor 3 walls
100
AcDbPolyline
 90
        2
 70
     0
 43
1.0
 10
429.9999999999999
 20
-3090.0
 10
509.9999999999999
 20
-3090.0
  0
LWPOLYLINE
  5
E07
330
1F
100
AcDbEntity
  8
floor 3 walls
100
AcDbPolyline
 90
        3
 70
     0
 43
1.0
 10
509.9999999999999
 20
-3155.0
 10
509.9999999999999
 20
-3195.0
 10
429.9999999999999
 20
-3195.0
  0
LWPOLYLINE
  5
E08
330
1F
100
AcDbEntity
  8
floor 3 walls
100
AcDbPolyline
 90
        2
 70
     0
 43
1.0
 10
589.9999999999999
 20
-3010.0
 10
724.9999999999999
 20
-3010.0
  0
LWPOLYLINE
  5
E0A
330
1F
100
AcDbEntity
  8
floor 3 walls
100
AcDbPolyline
 90
        4
 70
     0
 43
1.0
 10
759.9999999999999
 20
-3015.0
 10
929.9999999999999
 20
-3015.0
 10
929.9999999999999
 20
-3135.0
 10
824.9999999999999
 20
-3135.0
  0
LWPOLYLINE
  5
E0B
330
1F
100
AcDbEntity
  8
floor 3 walls
100
AcDbPolyline
 90
        3
 70
     0
 43
1.0
 10
794.9999999999999
 20
-3135.0
 10
759.9999999999999
 20
-3135.0
 10
759.9999999999999
 20
-3015.0
  0
LWPOLYLINE
  5
E0C
330
1F
100
AcDbEntity
  8
floor 3 walls
100
AcDbPolyline
 90
        2
 70
     0
 43
1.0
 10
1045.114977450271
 20
-3012.397212839407
 10
1045.114977450271
 20
-3127.397212839407
  0
LWPOLYLINE
  5
E0D
330
1F
100
AcDbEntity
  8
floor 3 walls
100
AcDbPolyline
 90
        2
 70
     0
 43
1.0
 10
1105.0
 20
-3010.0
 10
1135.0
 20
-3010.0
  0
LWPOLYLINE
  5
E0E
330
1F
100
AcDbEntity
  8
floor 3 walls
100
AcDbPolyline
 90
        4
 70
     0
 43
1.0
 10
1165.0
 20
-3010.0
 10
1215.0
 20
-3010.0
 10
1215.0
 20
-3140.0
 10
1105.0
 20
-3140.0
  0
LWPOLYLINE
  5
E0F
330
1F
100
AcDbEntity
  8
floor 3 walls
100
AcDbPolyline
 90
        2
 70
     0
 43
1.0
 10
1105.0
 20
-3010.0
 10
1105.0
 20
-3110.0
  0
LWPOLYLINE
  5
E10
330
1F
100
AcDbEntity
  8
floor 3 walls
100
AcDbPolyline
 90
        3
 70
     0
 43
1.0
 10
1105.0
 20
-3075.0
 10
1170.0
 20
-3075.0
 10
1170.0
 20
-3010.0
  0
LWPOLYLINE
  5
E11
330
1F
100
AcDbEntity
  8
floor 3 walls
100
AcDbPolyline
 90
        2
 70
     0
 43
1.0
 10
1170.0
 20
-3075.0
 10
1170.0
 20
-3140.0
  0
LWPOLYLINE
  5
E12
330
1F
100
AcDbEntity
  8
floor 3 walls
100
AcDbPolyline
 90
        2
 70
     0
 43
1.0
 10
1655.0
 20
-3013.99788107867
 10
1575.0
 20
-3013.99788107867
  0
LWPOLYLINE
  5
E13
330
1F
100
AcDbEntity
  8
floor 3 walls
100
AcDbPolyline
 90
        2
 70
     0
 43
1.0
 10
1710.0
 20
-3020.0
 10
1710.0
 20
-3135.0
  0
LWPOLYLINE
  5
E14
330
1F
100
AcDbEntity
  8
floor 3 walls
100
AcDbPolyline
 90
        4
 70
     0
 43
1.0
 10
1390.0
 20
-3015.0
 10
1540.0
 20
-3015.0
 10
1540.0
 20
-3135.0
 10
1505.0
 20
-3135.0
  0
LWPOLYLINE
  5
E15
330
1F
100
AcDbEntity
  8
floor 3 walls
100
AcDbPolyline
 90
        3
 70
     0
 43
1.0
 10
1480.0
 20
-3135.0
 10
1390.0
 20
-3135.0
 10
1390.0
 20
-3015.0
  0
LWPOLYLINE
  5
E1C
330
1F
100
AcDbEntity
  8
floor 3 walls
100
AcDbPolyline
 90
        8
 70
     0
 43
1.0
 10
1700.0
 20
-3320.0
 10
1700.0
 20
-3555.0
 10
1315.0
 20
-3555.0
 10
1315.0
 20
-3315.0
 10
984.9999999999998
 20
-3315.0
 10
984.9999999999998
 20
-3555.0
 10
599.9999999999999
 20
-3555.0
 10
599.9999999999999
 20
-3260.0
  0
LWPOLYLINE
  5
E1D
330
1F
100
AcDbEntity
  8
floor 3 walls
100
AcDbPolyline
 90
        2
 70
     0
 43
1.0
 10
1865.0
 20
-2880.0
 10
1955.0
 20
-2880.0
  0
LWPOLYLINE
  5
E1E
330
1F
100
AcDbEntity
  8
floor 3 walls
100
AcDbPolyline
 90
        2
 70
     0
 43
1.0
 10
1955.0
 20
-2965.0
 10
1940.0
 20
-2965.0
  0
LWPOLYLINE
  5
E1F
330
1F
100
AcDbEntity
  8
floor 3 walls
100
AcDbPolyline
 90
        4
 70
     0
 43
1.0
 10
1785.0
 20
-3000.0
 10
1785.0
 20
-3015.0
 10
1950.0
 20
-3015.0
 10
1950.0
 20
-3000.0
  0
LWPOLYLINE
  5
E20
330
1F
100
AcDbEntity
  8
floor 3 walls
100
AcDbPolyline
 90
        2
 70
     0
 43
1.0
 10
1950.0
 20
-3015.0
 10
1950.0
 20
-3055.0
  0
LWPOLYLINE
  5
E21
330
1F
100
AcDbEntity
  8
floor 3 walls
100
AcDbPolyline
 90
        2
 70
     0
 43
1.0
 10
1950.0
 20
-3085.0
 10
1950.0
 20
-3135.0
  0
LWPOLYLINE
  5
E22
330
1F
100
AcDbEntity
  8
floor 3 walls
100
AcDbPolyline
 90
        2
 70
     0
 43
1.0
 10
1950.0
 20
-3170.0
 10
1950.0
 20
-3190.0
  0
LWPOLYLINE
  5
E23
330
1F
100
AcDbEntity
  8
floor 3 walls
100
AcDbPolyline
 90
        2
 70
     0
 43
1.0
 10
1950.0
 20
-3215.0
 10
1950.0
 20
-3290.0
  0
LWPOLYLINE
  5
E24
330
1F
100
AcDbEntity
  8
floor 3 walls
100
AcDbPolyline
 90
        2
 70
     0
 43
1.0
 10
1950.0
 20
-3320.0
 10
1950.0
 20
-3315.0
  0
LWPOLYLINE
  5
E25
330
1F
100
AcDbEntity
  8
floor 3 walls
100
AcDbPolyline
 90
        2
 70
     0
 43
1.0
 10
1785.0
 20
-3320.0
 10
1785.0
 20
-3315.0
  0
LWPOLYLINE
  5
E26
330
1F
100
AcDbEntity
  8
floor 3 walls
100
AcDbPolyline
 90
        2
 70
     0
 43
1.0
 10
1785.0
 20
-3290.0
 10
1785.0
 20
-3215.0
  0
LWPOLYLINE
  5
E27
330
1F
100
AcDbEntity
  8
floor 3 walls
100
AcDbPolyline
 90
        2
 70
     0
 43
1.0
 10
1785.0
 20
-3250.0
 10
1950.0
 20
-3250.0
  0
LWPOLYLINE
  5
E28
330
1F
100
AcDbEntity
  8
floor 3 walls
100
AcDbPolyline
 90
        2
 70
     0
 43
1.0
 10
1785.0
 20
-3015.0
 10
1785.0
 20
-3030.0
  0
LWPOLYLINE
  5
E29
330
1F
100
AcDbEntity
  8
floor 3 walls
100
AcDbPolyline
 90
        2
 70
     0
 43
1.0
 10
1785.0
 20
-3065.0
 10
1785.0
 20
-3135.0
  0
LWPOLYLINE
  5
E2B
330
1F
100
AcDbEntity
  8
floor 3 walls
100
AcDbPolyline
 90
        2
 70
     0
 43
1.0
 10
1785.0
 20
-3170.0
 10
1785.0
 20
-3190.0
  0
LWPOLYLINE
  5
E2C
330
1F
100
AcDbEntity
  8
floor 3 walls
100
AcDbPolyline
 90
        2
 70
     0
 43
1.0
 10
1865.0
 20
-3015.0
 10
1865.0
 20
-3320.0
  0
LWPOLYLINE
  5
E2D
330
1F
100
AcDbEntity
  8
floor 3 walls
100
AcDbPolyline
 90
        2
 70
     0
 43
1.0
 10
1785.0
 20
-3085.0
 10
1950.0
 20
-3085.0
  0
LWPOLYLINE
  5
E2E
330
1F
100
AcDbEntity
  8
floor 3 walls
100
AcDbPolyline
 90
        2
 70
     0
 43
1.0
 10
1785.0
 20
-3135.0
 10
1950.0
 20
-3135.0
  0
LWPOLYLINE
  5
E2F
330
1F
100
AcDbEntity
  8
floor 3 walls
100
AcDbPolyline
 90
        2
 70
     0
 43
1.0
 10
1785.0
 20
-3185.0
 10
1950.0
 20
-3185.0
  0
LWPOLYLINE
  5
E30
330
1F
100
AcDbEntity
  8
floor 3 walls
100
AcDbPolyline
 90
        3
 70
     0
 43
1.0
 10
2030.0
 20
-3305.0
 10
2165.0
 20
-3305.0
 10
2165.0
 20
-3270.0
  0
LWPOLYLINE
  5
E3C
330
1F
100
AcDbEntity
  8
floor 0 zones
100
AcDbPolyline
 90
        4
 70
     1
 43
0.0
 10
3110.0
 20
165.0
 10
3110.0
 20
59.99999999999991
 10
3285.0
 20
59.99999999999999
 10
3285.0
 20
165.0
1001
PE_URL
1000
name=
  0
LWPOLYLINE
  5
E3E
330
1F
100
AcDbEntity
  8
floor 0 walls
100
AcDbPolyline
 90
        3
 70
     0
 43
1.0
 10
3110.0
 20
165.0
 10
3110.0
 20
59.99999999999999
 10
3115.0
 20
59.99999999999999
  0
LWPOLYLINE
  5
E3F
330
1F
100
AcDbEntity
  8
floor 0 walls
100
AcDbPolyline
 90
        2
 70
     0
 43
1.0
 10
3285.0
 20
165.0
 10
3285.0
 20
59.99999999999999
  0
LWPOLYLINE
  5
E41
330
1F
100
AcDbEntity
  8
floor 0 zones
100
AcDbPolyline
 90
        4
 70
     1
 43
0.0
 10
3285.0
 20
165.0
 10
3285.0
 20
59.99999999999999
 10
3455.0
 20
59.99999999999997
 10
3455.0
 20
165.0
1001
PE_URL
1000
name=
  0
LWPOLYLINE
  5
E43
330
1F
100
AcDbEntity
  8
floor 0 walls
100
AcDbPolyline
 90
        3
 70
     0
 43
1.0
 10
2760.0
 20
165.0
 10
2760.0
 20
59.99999999999999
 10
2750.0
 20
59.99999999999999
  0
LWPOLYLINE
  5
E44
330
1F
100
AcDbEntity
  8
floor 0 walls
100
AcDbPolyline
 90
        2
 70
     0
 43
1.0
 10
2590.0
 20
165.0
 10
2590.0
 20
59.99999999999999
  0
LWPOLYLINE
  5
E45
330
1F
100
AcDbEntity
  8
floor 0 walls
100
AcDbPolyline
 90
        2
 70
     0
 43
1.0
 10
2430.0
 20
165.0
 10
2430.0
 20
59.99999999999999
  0
LWPOLYLINE
  5
E47
330
1F
100
AcDbEntity
  8
floor 0 zones
100
AcDbPolyline
 90
        4
 70
     1
 43
0.0
 10
2430.0
 20
165.0
 10
2430.0
 20
59.99999999999996
 10
2590.0
 20
59.99999999999996
 10
2590.0
 20
165.0
1001
PE_URL
1000
name=
  0
LWPOLYLINE
  5
E48
330
1F
100
AcDbEntity
  8
floor 0 zones
100
AcDbPolyline
 90
        4
 70
     1
 43
0.0
 10
2595.0
 20
165.0
 10
2595.0
 20
59.99999999999997
 10
2760.0
 20
59.99999999999997
 10
2760.0
 20
165.0
1001
PE_URL
1000
name=
  0
LWPOLYLINE
  5
E4A
330
1F
100
AcDbEntity
  8
floor 0 walls
100
AcDbPolyline
 90
        4
 70
     0
 43
1.0
 10
1725.0
 20
165.0
 10
1725.0
 20
59.99999999999999
 10
1725.0
 20
54.99999999999999
 10
1745.0
 20
54.99999999999999
  0
LWPOLYLINE
  5
E4C
330
1F
100
AcDbEntity
  8
floor 0 zones
100
AcDbPolyline
 90
        4
 70
     1
 43
0.0
 10
1725.0
 20
165.0
 10
1725.0
 20
54.99999999999999
 10
1895.0
 20
54.99999999999999
 10
1895.0
 20
165.0
1001
PE_URL
1000
name=
  0
LWPOLYLINE
  5
E4E
330
1F
100
AcDbEntity
  8
floor 1 zones
100
AcDbPolyline
 90
        4
 70
     1
 43
0.0
 10
3785.0
 20
-499.9999999999999
 10
3785.0
 20
-629.9999999999999
 10
3660.0
 20
-629.9999999999999
 10
3660.0
 20
-499.9999999999999
1001
PE_URL
1000
name=A216
  0
LWPOLYLINE
  5
E4F
330
1F
100
AcDbEntity
  8
floor 1 zones
100
AcDbPolyline
 90
        4
 70
     1
 43
0.0
 10
3545.0
 20
-499.9999999999999
 10
3545.0
 20
-629.9999999999999
 10
3660.0
 20
-629.9999999999999
 10
3660.0
 20
-499.9999999999999
1001
PE_URL
1000
name=A215
  0
LWPOLYLINE
  5
E53
330
1F
100
AcDbEntity
  8
floor 1 zones
100
AcDbPolyline
 90
        4
 70
     1
 43
0.0
 10
3090.0
 20
-499.9999999999999
 10
3090.0
 20
-629.9999999999999
 10
2975.0
 20
-629.9999999999999
 10
2975.0
 20
-499.9999999999999
1001
PE_URL
1000
name=A210
  0
LWPOLYLINE
  5
E54
330
1F
100
AcDbEntity
  8
floor 1 zones
100
AcDbPolyline
 90
        4
 70
     1
 43
0.0
 10
2975.0
 20
-499.9999999999999
 10
2975.0
 20
-629.9999999999999
 10
2750.0
 20
-629.9999999999999
 10
2750.0
 20
-499.9999999999999
1001
PE_URL
1000
name=A208
  0
LWPOLYLINE
  5
E55
330
1F
100
AcDbEntity
  8
floor 1 zones
100
AcDbPolyline
 90
        4
 70
     1
 43
0.0
 10
2745.0
 20
-499.9999999999999
 10
2745.0
 20
-629.9999999999999
 10
2630.0
 20
-629.9999999999999
 10
2630.0
 20
-499.9999999999999
1001
PE_URL
1000
name=A207
  0
LWPOLYLINE
  5
E56
330
1F
100
AcDbEntity
  8
floor 1 zones
100
AcDbPolyline
 90
        4
 70
     1
 43
0.0
 10
2630.0
 20
-499.9999999999999
 10
2630.0
 20
-629.9999999999999
 10
2405.0
 20
-629.9999999999999
 10
2405.0
 20
-499.9999999999999
1001
PE_URL
1000
name=A205
  0
LWPOLYLINE
  5
E57
330
1F
100
AcDbEntity
  8
floor 1 zones
100
AcDbPolyline
 90
        4
 70
     1
 43
0.0
 10
2405.0
 20
-499.9999999999999
 10
2405.0
 20
-629.9999999999999
 10
2290.0
 20
-629.9999999999999
 10
2290.0
 20
-499.9999999999999
1001
PE_URL
1000
name=A204
  0
LWPOLYLINE
  5
E58
330
1F
100
AcDbEntity
  8
floor 1 zones
100
AcDbPolyline
 90
        4
 70
     1
 43
0.0
 10
2290.0
 20
-499.9999999999999
 10
2290.0
 20
-629.9999999999999
 10
2180.0
 20
-629.9999999999999
 10
2180.0
 20
-499.9999999999999
1001
PE_URL
1000
name=A203
  0
LWPOLYLINE
  5
E59
330
1F
100
AcDbEntity
  8
floor 1 zones
100
AcDbPolyline
 90
        4
 70
     1
 43
0.0
 10
2180.0
 20
-499.9999999999999
 10
2180.0
 20
-630.0
 10
1970.0
 20
-630.0
 10
1970.0
 20
-499.9999999999999
1001
PE_URL
1000
name=A201
  0
LWPOLYLINE
  5
E5A
330
1F
100
AcDbEntity
  8
floor 1 zones
100
AcDbPolyline
 90
        4
 70
     1
 43
0.0
 10
1820.0
 20
-499.9999999999999
 10
1820.0
 20
-629.9999999999999
 10
1725.0
 20
-629.9999999999999
 10
1725.0
 20
-499.9999999999999
1001
PE_URL
1000
name=B209.2
  0
LWPOLYLINE
  5
E5B
330
1F
100
AcDbEntity
  8
floor 1 zones
100
AcDbPolyline
 90
        4
 70
     1
 43
0.0
 10
1725.0
 20
-499.9999999999999
 10
1725.0
 20
-629.9999999999999
 10
1610.0
 20
-629.9999999999999
 10
1610.0
 20
-499.9999999999999
1001
PE_URL
1000
name=B209
  0
LWPOLYLINE
  5
E5C
330
1F
100
AcDbEntity
  8
floor 1 zones
100
AcDbPolyline
 90
        4
 70
     1
 43
0.0
 10
1610.0
 20
-499.9999999999999
 10
1610.0
 20
-629.9999999999999
 10
1495.0
 20
-629.9999999999999
 10
1495.0
 20
-499.9999999999999
1001
PE_URL
1000
name=B208
  0
LWPOLYLINE
  5
E5D
330
1F
100
AcDbEntity
  8
floor 1 zones
100
AcDbPolyline
 90
        4
 70
     1
 43
0.0
 10
1495.0
 20
-499.9999999999999
 10
1495.0
 20
-629.9999999999999
 10
1385.0
 20
-629.9999999999999
 10
1385.0
 20
-499.9999999999999
1001
PE_URL
1000
name=B207
  0
LWPOLYLINE
  5
E5E
330
1F
100
AcDbEntity
  8
floor 1 zones
100
AcDbPolyline
 90
        4
 70
     1
 43
0.0
 10
1385.0
 20
-499.9999999999999
 10
1385.0
 20
-629.9999999999999
 10
1270.0
 20
-629.9999999999999
 10
1270.0
 20
-499.9999999999999
1001
PE_URL
1000
name=B206
  0
LWPOLYLINE
  5
E5F
330
1F
100
AcDbEntity
  8
floor 1 zones
100
AcDbPolyline
 90
        4
 70
     1
 43
0.0
 10
1270.0
 20
-499.9999999999999
 10
1270.0
 20
-629.9999999999999
 10
1155.0
 20
-629.9999999999999
 10
1155.0
 20
-499.9999999999999
1001
PE_URL
1000
name=B205
  0
LWPOLYLINE
  5
E60
330
1F
100
AcDbEntity
  8
floor 1 zones
100
AcDbPolyline
 90
        4
 70
     1
 43
0.0
 10
1155.0
 20
-499.9999999999999
 10
1155.0
 20
-629.9999999999999
 10
1040.0
 20
-629.9999999999999
 10
1040.0
 20
-499.9999999999999
1001
PE_URL
1000
name=B204
  0
LWPOLYLINE
  5
E61
330
1F
100
AcDbEntity
  8
floor 1 zones
100
AcDbPolyline
 90
        4
 70
     1
 43
0.0
 10
1040.0
 20
-499.9999999999999
 10
1040.0
 20
-629.9999999999999
 10
929.9999999999998
 20
-629.9999999999999
 10
929.9999999999998
 20
-499.9999999999999
1001
PE_URL
1000
name=B203
  0
LWPOLYLINE
  5
E62
330
1F
100
AcDbEntity
  8
floor 1 zones
100
AcDbPolyline
 90
        4
 70
     1
 43
0.0
 10
929.9999999999999
 20
-499.9999999999999
 10
929.9999999999999
 20
-629.9999999999999
 10
814.9999999999998
 20
-629.9999999999999
 10
814.9999999999998
 20
-499.9999999999999
1001
PE_URL
1000
name=B202
  0
LWPOLYLINE
  5
E63
330
1F
100
AcDbEntity
  8
floor 1 zones
100
AcDbPolyline
 90
        4
 70
     1
 43
0.0
 10
814.9999999999999
 20
-499.9999999999999
 10
814.9999999999999
 20
-629.9999999999999
 10
679.9999999999999
 20
-629.9999999999999
 10
679.9999999999999
 20
-499.9999999999999
1001
PE_URL
1000
name=B201
  0
LWPOLYLINE
  5
E64
330
1F
100
AcDbEntity
  8
floor 1 zones
100
AcDbPolyline
 90
        4
 70
     1
 43
0.0
 10
1500.0
 20
-674.9999999999999
 10
1500.0
 20
-794.9999999999999
 10
1270.0
 20
-794.9999999999999
 10
1270.0
 20
-674.9999999999999
1001
PE_URL
1000
name=B255
  0
LWPOLYLINE
  5
E65
330
1F
100
AcDbEntity
  8
floor 1 zones
100
AcDbPolyline
 90
        4
 70
     1
 43
0.0
 10
1175.0
 20
-674.9999999999999
 10
1175.0
 20
-794.9999999999999
 10
1040.0
 20
-794.9999999999999
 10
1040.0
 20
-674.9999999999999
1001
PE_URL
1000
name=B254
  0
LWPOLYLINE
  5
E66
330
1F
100
AcDbEntity
  8
floor 1 zones
100
AcDbPolyline
 90
        4
 70
     1
 43
0.0
 10
984.9999999999998
 20
-674.9999999999999
 10
984.9999999999998
 20
-734.9999999999999
 10
839.9999999999999
 20
-734.9999999999999
 10
839.9999999999999
 20
-674.9999999999999
1001
PE_URL
1000
name=B253.2
  0
LWPOLYLINE
  5
E67
330
1F
100
AcDbEntity
  8
floor 1 zones
100
AcDbPolyline
 90
        4
 70
     1
 43
0.0
 10
1125.0
 20
-839.9999999999999
 10
1125.0
 20
-964.9999999999998
 10
1040.0
 20
-964.9999999999998
 10
1040.0
 20
-839.9999999999999
1001
PE_URL
1000
name=B210
  0
LWPOLYLINE
  5
E68
330
1F
100
AcDbEntity
  8
floor 1 zones
100
AcDbPolyline
 90
        4
 70
     1
 43
0.0
 10
1210.0
 20
-839.9999999999999
 10
1210.0
 20
-964.9999999999998
 10
1125.0
 20
-964.9999999999998
 10
1125.0
 20
-839.9999999999999
1001
PE_URL
1000
name=B211
  0
LWPOLYLINE
  5
E69
330
1F
100
AcDbEntity
  8
floor 1 zones
100
AcDbPolyline
 90
        4
 70
     1
 43
0.0
 10
1295.0
 20
-839.9999999999999
 10
1295.0
 20
-964.9999999999998
 10
1210.0
 20
-964.9999999999998
 10
1210.0
 20
-839.9999999999999
1001
PE_URL
1000
name=B212
  0
LWPOLYLINE
  5
E6A
330
1F
100
AcDbEntity
  8
floor 1 zones
100
AcDbPolyline
 90
        4
 70
     1
 43
0.0
 10
1380.0
 20
-839.9999999999999
 10
1380.0
 20
-964.9999999999998
 10
1295.0
 20
-964.9999999999998
 10
1295.0
 20
-839.9999999999999
1001
PE_URL
1000
name=B213
  0
LWPOLYLINE
  5
E6B
330
1F
100
AcDbEntity
  8
floor 1 zones
100
AcDbPolyline
 90
        4
 70
     1
 43
0.0
 10
599.9999999999999
 20
-689.9999999999999
 10
599.9999999999999
 20
-749.9999999999999
 10
524.9999999999999
 20
-749.9999999999999
 10
524.9999999999999
 20
-689.9999999999999
1001
PE_URL
1000
name=B273
  0
LWPOLYLINE
  5
E6C
330
1F
100
AcDbEntity
  8
floor 1 zones
100
AcDbPolyline
 90
        4
 70
     1
 43
0.0
 10
599.9999999999999
 20
-789.9999999999999
 10
599.9999999999999
 20
-849.9999999999999
 10
524.9999999999999
 20
-849.9999999999999
 10
524.9999999999999
 20
-789.9999999999999
1001
PE_URL
1000
name=B272
  0
LWPOLYLINE
  5
E6D
330
1F
100
AcDbEntity
  8
floor 1 zones
100
AcDbPolyline
 90
        4
 70
     1
 43
0.0
 10
599.9999999999999
 20
-849.9999999999999
 10
599.9999999999999
 20
-919.9999999999999
 10
524.9999999999999
 20
-919.9999999999999
 10
524.9999999999999
 20
-849.9999999999999
1001
PE_URL
1000
name=B271
  0
LWPOLYLINE
  5
E6E
330
1F
100
AcDbEntity
  8
floor 1 zones
100
AcDbPolyline
 90
        4
 70
     1
 43
0.0
 10
2320.0
 20
-839.9999999999999
 10
2320.0
 20
-974.9999999999998
 10
2405.0
 20
-974.9999999999998
 10
2405.0
 20
-839.9999999999999
1001
PE_URL
1000
name=A220
  0
LWPOLYLINE
  5
E6F
330
1F
100
AcDbEntity
  8
floor 1 zones
100
AcDbPolyline
 90
        4
 70
     1
 43
0.0
 10
1815.0
 20
-839.9999999999999
 10
1815.0
 20
-904.9999999999999
 10
1895.0
 20
-904.9999999999999
 10
1895.0
 20
-839.9999999999999
1001
PE_URL
1000
name=B275
  0
LWPOLYLINE
  5
E70
330
1F
100
AcDbEntity
  8
floor 1 zones
100
AcDbPolyline
 90
        4
 70
     1
 43
0.0
 10
1895.0
 20
-839.9999999999999
 10
1895.0
 20
-904.9999999999999
 10
1975.0
 20
-904.9999999999999
 10
1975.0
 20
-839.9999999999999
1001
PE_URL
1000
name=A272
  0
LWPOLYLINE
  5
E71
330
1F
100
AcDbEntity
  8
floor 1 zones
100
AcDbPolyline
 90
        4
 70
     1
 43
0.0
 10
1815.0
 20
-904.9999999999999
 10
1815.0
 20
-964.9999999999998
 10
1895.0
 20
-964.9999999999998
 10
1895.0
 20
-904.9999999999999
1001
PE_URL
1000
name=B274
  0
LWPOLYLINE
  5
E72
330
1F
100
AcDbEntity
  8
floor 1 zones
100
AcDbPolyline
 90
        4
 70
     1
 43
0.0
 10
1895.0
 20
-904.9999999999999
 10
1895.0
 20
-964.9999999999998
 10
1975.0
 20
-964.9999999999998
 10
1975.0
 20
-904.9999999999999
1001
PE_URL
1000
name=A271
  0
LWPOLYLINE
  5
E73
330
1F
100
AcDbEntity
  8
floor 1 zones
100
AcDbPolyline
 90
        4
 70
     1
 43
0.0
 10
1815.0
 20
-674.9999999999999
 10
1815.0
 20
-744.9999999999999
 10
1895.0
 20
-744.9999999999999
 10
1895.0
 20
-674.9999999999999
1001
PE_URL
1000
name=B267
  0
LWPOLYLINE
  5
E74
330
1F
100
AcDbEntity
  8
floor 1 zones
100
AcDbPolyline
 90
        4
 70
     1
 43
0.0
 10
1895.0
 20
-674.9999999999999
 10
1895.0
 20
-744.9999999999999
 10
1970.0
 20
-744.9999999999999
 10
1970.0
 20
-674.9999999999999
1001
PE_URL
1000
name=A273
  0
LWPOLYLINE
  5
E75
330
1F
100
AcDbEntity
  8
floor 1 zones
100
AcDbPolyline
 90
        4
 70
     1
 43
0.0
 10
2290.0
 20
-674.9999999999999
 10
2290.0
 20
-744.9999999999999
 10
2360.0
 20
-744.9999999999999
 10
2360.0
 20
-674.9999999999999
1001
PE_URL
1000
name=A282
  0
LWPOLYLINE
  5
E76
330
1F
100
AcDbEntity
  8
floor 1 zones
100
AcDbPolyline
 90
        4
 70
     1
 43
0.0
 10
2290.0
 20
-744.9999999999999
 10
2290.0
 20
-794.9999999999999
 10
2360.0
 20
-794.9999999999999
 10
2360.0
 20
-744.9999999999999
1001
PE_URL
1000
name=A286
  0
LWPOLYLINE
  5
E77
330
1F
100
AcDbEntity
  8
floor 1 zones
100
AcDbPolyline
 90
        4
 70
     1
 43
0.0
 10
3435.0
 20
-839.9999999999999
 10
3435.0
 20
-974.9999999999999
 10
3600.0
 20
-974.9999999999999
 10
3600.0
 20
-839.9999999999999
1001
PE_URL
1000
name=A233
  0
LWPOLYLINE
  5
E78
330
1F
100
AcDbEntity
  8
floor 1 zones
100
AcDbPolyline
 90
        4
 70
     1
 43
0.0
 10
3600.0
 20
-839.9999999999999
 10
3600.0
 20
-974.9999999999999
 10
3775.0
 20
-974.9999999999999
 10
3775.0
 20
-839.9999999999999
1001
PE_URL
1000
name=A235
  0
LWPOLYLINE
  5
E79
330
1F
100
AcDbEntity
  8
floor 1 zones
100
AcDbPolyline
 90
        4
 70
     1
 43
0.0
 10
3869.999999999999
 20
-684.9999999999999
 10
3869.999999999999
 20
-749.9999999999999
 10
3944.999999999999
 20
-749.9999999999999
 10
3944.999999999999
 20
-684.9999999999999
1001
PE_URL
1000
name=A274
  0
LWPOLYLINE
  5
E7A
330
1F
100
AcDbEntity
  8
floor 1 zones
100
AcDbPolyline
 90
        4
 70
     1
 43
0.0
 10
3869.999999999999
 20
-789.9999999999999
 10
3869.999999999999
 20
-849.9999999999999
 10
3944.999999999999
 20
-849.9999999999999
 10
3944.999999999999
 20
-789.9999999999999
1001
PE_URL
1000
name=A275
  0
LWPOLYLINE
  5
E7B
330
1F
100
AcDbEntity
  8
floor 1 zones
100
AcDbPolyline
 90
        4
 70
     1
 43
0.0
 10
3869.999999999999
 20
-849.9999999999999
 10
3869.999999999999
 20
-919.9999999999999
 10
3944.999999999999
 20
-919.9999999999999
 10
3944.999999999999
 20
-849.9999999999999
1001
PE_URL
1000
name=A276
  0
LWPOLYLINE
  5
E7D
330
1F
100
AcDbEntity
  8
floor 0 zones
100
AcDbPolyline
 90
        4
 70
     1
 43
0.0
 10
3370.0
 20
354.9999999999999
 10
3370.0
 20
294.9999999999999
 10
3450.0
 20
294.9999999999999
 10
3450.0
 20
354.9999999999999
1001
PE_URL
1000
name=
  0
LWPOLYLINE
  5
E7E
330
1F
100
AcDbEntity
  8
floor 0 zones
100
AcDbPolyline
 90
        4
 70
     1
 43
0.0
 10
3370.0
 20
294.9999999999999
 10
3370.0
 20
229.9999999999999
 10
3450.0
 20
229.9999999999999
 10
3450.0
 20
294.9999999999999
1001
PE_URL
1000
name=
  0
LWPOLYLINE
  5
E7F
330
1F
100
AcDbEntity
  8
floor 0 zones
100
AcDbPolyline
 90
        4
 70
     1
 43
0.0
 10
3250.0
 20
354.9999999999999
 10
3250.0
 20
294.9999999999999
 10
3325.0
 20
294.9999999999999
 10
3325.0
 20
354.9999999999999
1001
PE_URL
1000
name=
  0
LWPOLYLINE
  5
E80
330
1F
100
AcDbEntity
  8
floor 0 zones
100
AcDbPolyline
 90
        4
 70
     1
 43
0.0
 10
3250.0
 20
294.9999999999999
 10
3250.0
 20
229.9999999999999
 10
3325.0
 20
229.9999999999999
 10
3325.0
 20
294.9999999999999
1001
PE_URL
1000
name=
  0
LWPOLYLINE
  5
E84
330
1F
100
AcDbEntity
  8
floor 0 zones
100
AcDbPolyline
 90
        4
 70
     1
 43
0.0
 10
2415.0
 20
354.9999999999999
 10
2415.0
 20
295.0
 10
2505.0
 20
295.0
 10
2505.0
 20
354.9999999999999
1001
PE_URL
1000
name=
  0
LWPOLYLINE
  5
E85
330
1F
100
AcDbEntity
  8
floor 0 zones
100
AcDbPolyline
 90
        4
 70
     1
 43
0.0
 10
2415.0
 20
294.9999999999999
 10
2415.0
 20
230.0
 10
2505.0
 20
230.0
 10
2505.0
 20
294.9999999999999
1001
PE_URL
1000
name=
  0
LWPOLYLINE
  5
E86
330
1F
100
AcDbEntity
  8
floor 0 zones
100
AcDbPolyline
 90
        4
 70
     1
 43
0.0
 10
584.9999999999999
 20
200.0
 10
584.9999999999999
 20
105.0
 10
509.9999999999999
 20
105.0
 10
509.9999999999999
 20
200.0
1001
PE_URL
1000
name=
  0
LWPOLYLINE
  5
E88
330
1F
100
AcDbEntity
  8
floor 0 walls
100
AcDbPolyline
 90
        2
 70
     0
 43
1.0
 10
584.9999999999999
 20
339.9999999999999
 10
509.9999999999999
 20
339.9999999999999
  0
LWPOLYLINE
  5
E8A
330
1F
100
AcDbEntity
  8
floor 0 zones
100
AcDbPolyline
 90
        4
 70
     1
 43
0.0
 10
509.9999999999999
 20
339.9999999999999
 10
509.9999999999999
 20
254.9999999999999
 10
584.9999999999999
 20
254.9999999999999
 10
584.9999999999999
 20
339.9999999999999
1001
PE_URL
1000
name=
  0
CIRCLE
  5
EAB
330
1F
100
AcDbEntity
  8
floor 0 gps
100
AcDbCircle
 10
3979.999999999999
 20
529.9999999999999
 30
0.0
 40
73.82411530116696
1001
PE_URL
1000
lat=60.187336;lon=24.816514;alt=0
  0
CIRCLE
  5
EAC
330
1F
100
AcDbEntity
  8
floor 0 gps
100
AcDbCircle
 10
509.9999999999999
 20
529.9999999999999
 30
0.0
 40
101.2422836565829
1001
PE_URL
1000
lat=60.187563;lon=24.814236;alt=0
  0
CIRCLE
  5
EAE
330
1F
100
AcDbEntity
  8
floor 1 gps
100
AcDbCircle
 10
524.9999999999999
 20
-499.9999999999999
 30
0.0
 40
160.0781059358211
1001
PE_URL
1000
lat=60.187563;lon=24.814236;alt=4
  0
CIRCLE
  5
EAF
330
1F
100
AcDbEntity
  8
floor 2 gps
100
AcDbCircle
 10
474.9999999999999
 20
-1730.0
 30
0.0
 40
156.2049935181331
1001
PE_URL
1000
lat=60.187563;lon=24.814236;alt=8
  0
CIRCLE
  5
EB0
330
1F
100
AcDbEntity
  8
floor 3 gps
100
AcDbCircle
 10
429.9999999999999
 20
-2835.0
 30
0.0
 40
154.0292180074936
1001
PE_URL
1000
lat=60.187563;lon=24.814236;alt=12
  0
CIRCLE
  5
EB1
330
1F
100
AcDbEntity
  8
floor 1 gps
100
AcDbCircle
 10
3944.999999999999
 20
-499.9999999999999
 30
0.0
 40
93.00537618869133
1001
PE_URL
1000
lat=60.187336;lon=24.816514;alt=4
  0
CIRCLE
  5
EB2
330
1F
100
AcDbEntity
  8
floor 2 gps
100
AcDbCircle
 10
3989.999999999999
 20
-1725.0
 30
0.0
 40
161.0124218810462
1001
PE_URL
1000
lat=60.187336;lon=24.816514;alt=8
  0
CIRCLE
  5
EB3
330
1F
100
AcDbEntity
  8
floor 3 gps
100
AcDbCircle
 10
4014.999999999999
 20
-2830.0
 30
0.0
 40
170.293863659264
1001
PE_URL
1000
lat=60.187336;lon=24.816514;alt=12
  0
CIRCLE
  5
EB7
330
1F
100
AcDbEntity
  8
0
100
AcDbCircle
 10
3835.0
 20
-884.9999999999999
 30
0.0
 40
11.18033988749895
1001
PE_URL
1000
id=03010001;rssi1m=-67;height=2.5
1002
{
1000

1000

1002
{
1071
        0
1002
}
1002
}
  0
LWPOLYLINE
  5
FEF
330
1F
100
AcDbEntity
  8
floor 1 walls
100
AcDbPolyline
 90
        2
 70
     0
 43
1.0
 10
984.9999999999998
 20
-734.9999999999999
 10
839.9999999999999
 20
-734.9999999999999
  0
LWPOLYLINE
  5
FF0
330
1F
100
AcDbEntity
  8
floor 1 walls
100
AcDbPolyline
 90
        2
 70
     0
 43
1.0
 10
914.9999999999999
 20
-734.9999999999999
 10
914.9999999999999
 20
-794.9999999999999
  0
LWPOLYLINE
  5
FF1
330
1F
100
AcDbEntity
  8
floor 1 zones
100
AcDbPolyline
 90
        4
 70
     1
 43
0.0
 10
839.9999999999999
 20
-734.9999999999999
 10
839.9999999999999
 20
-794.9999999999999
 10
914.9999999999999
 20
-794.9999999999999
 10
914.9999999999999
 20
-734.9999999999999
1001
PE_URL
1000
name=B253.3
  0
LWPOLYLINE
  5
FF2
330
1F
100
AcDbEntity
  8
floor 1 zones
100
AcDbPolyline
 90
        4
 70
     1
 43
0.0
 10
914.9999999999999
 20
-734.9999999999999
 10
914.9999999999999
 20
-794.9999999999999
 10
984.9999999999998
 20
-794.9999999999999
 10
984.9999999999998
 20
-734.9999999999999
1001
PE_URL
1000
name=B253.4
  0
LWPOLYLINE
  5
FFF
330
1F
100
AcDbEntity
  8
floor 1 keepouts
 62
     3
100
AcDbPolyline
 90
       29
 70
     0
 43
1.0
 10
524.9999999999999
 20
-499.9999999999999
 10
524.9999999999999
 20
-919.9999999999999
 10
684.9999999999999
 20
-919.9999999999999
 10
684.9999999999999
 20
-1195.0
 10
1055.0
 20
-1195.0
 10
1055.0
 20
-964.9999999999998
 10
1370.0
 20
-964.9999999999998
 10
1370.0
 20
-1195.0
 10
1735.0
 20
-1195.0
 10
1735.0
 20
-964.9999999999998
 10
2060.0
 20
-964.9999999999998
 10
2060.0
 20
-974.9999999999998
 10
3775.0
 20
-974.9999999999998
 10
3775.0
 20
-919.9999999999999
 10
3944.999999999999
 20
-919.9999999999999
 10
3944.999999999999
 20
-499.9999999999999
 10
3864.999999999999
 20
-499.9999999999999
 10
3864.999999999999
 20
-549.9999999999999
 10
3790.0
 20
-549.9999999999999
 10
3790.0
 20
-499.9999999999999
 10
1970.0
 20
-499.9999999999999
 10
1970.0
 20
-549.9999999999999
 10
1900.0
 20
-549.9999999999999
 10
1900.0
 20
-499.9999999999999
 10
679.9999999999999
 20
-499.9999999999999
 10
679.9999999999999
 20
-549.9999999999999
 10
609.9999999999999
 20
-549.9999999999999
 10
609.9999999999999
 20
-499.9999999999999
 10
524.9999999999999
 20
-499.9999999999999
  0
LWPOLYLINE
  5
1000
330
1F
100
AcDbEntity
  8
floor 0 keepouts
 62
     3
100
AcDbPolyline
 90
       37
 70
     0
 43
1.0
 10
509.9999999999999
 20
529.9999999999999
 10
509.9999999999999
 20
105.0
 10
674.9999999999999
 20
105.0
 10
674.9999999999999
 20
-165.0
 10
1040.0
 20
-165.0
 10
1040.0
 20
59.99999999999999
 10
1370.0
 20
59.99999999999999
 10
1370.0
 20
-165.0
 10
1735.0
 20
-165.0
 10
1735.0
 20
54.99999999999999
 10
1975.0
 20
54.99999999999999
 10
1975.0
 20
165.0
 10
2065.0
 20
165.0
 10
2065.0
 20
-165.0
 10
2425.0
 20
-165.0
 10
2425.0
 20
59.99999999999999
 10
2750.0
 20
59.99999999999999
 10
2750.0
 20
-165.0
 10
3115.0
 20
-165.0
 10
3115.0
 20
59.99999999999999
 10
3445.0
 20
59.99999999999999
 10
3445.0
 20
-165.0
 10
3815.0
 20
-165.0
 10
3815.0
 20
105.0
 10
3979.999999999999
 20
105.0
 10
3979.999999999999
 20
529.9999999999999
 10
3889.999999999999
 20
529.9999999999999
 10
3889.999999999999
 20
479.9999999999999
 10
3820.0
 20
479.9999999999999
 10
3820.0
 20
529.9999999999999
 10
3450.0
 20
529.9999999999999
 10
3450.0
 20
524.9999999999999
 10
669.9999999999999
 20
524.9999999999999
 10
669.9999999999999
 20
474.9999999999999
 10
594.9999999999999
 20
474.9999999999999
 10
594.9999999999999
 20
529.9999999999999
 10
509.9999999999999
 20
529.9999999999999
  0
LWPOLYLINE
  5
1003
330
1F
100
AcDbEntity
  8
floor 2 keepouts
 62
     3
100
AcDbPolyline
 90
       37
 70
     1
 43
1.0
 10
1345.0
 20
-2440.0
 10
1720.0
 20
-2440.0
 10
1720.0
 20
-2205.0
 10
2050.0
 20
-2205.0
 10
2050.0
 20
-2435.0
 10
2420.0
 20
-2435.0
 10
2420.0
 20
-2205.0
 10
2745.0
 20
-2205.0
 10
2745.0
 20
-2435.0
 10
3120.0
 20
-2435.0
 10
3120.0
 20
-2205.0
 10
3445.0
 20
-2205.0
 10
3445.0
 20
-2435.0
 10
3825.0
 20
-2435.0
 10
3825.0
 20
-2155.0
 10
3989.999999999999
 20
-2155.0
 10
3989.999999999999
 20
-1725.0
 10
3904.999999999999
 20
-1725.0
 10
3904.999999999999
 20
-1780.0
 10
3825.0
 20
-1780.0
 10
3825.0
 20
-1730.0
 10
1970.0
 20
-1730.0
 10
1970.0
 20
-1780.0
 10
1885.0
 20
-1780.0
 10
1885.0
 20
-1730.0
 10
644.9999999999999
 20
-1730.0
 10
644.9999999999999
 20
-1775.0
 10
559.9999999999999
 20
-1775.0
 10
559.9999999999999
 20
-1730.0
 10
479.9999999999999
 20
-1730.0
 10
479.9999999999999
 20
-2160.0
 10
644.9999999999999
 20
-2160.0
 10
644.9999999999999
 20
-2440.0
 10
1020.0
 20
-2440.0
 10
1020.0
 20
-2205.0
 10
1345.0
 20
-2205.0
 10
1345.0
 20
-2440.0
  0
LWPOLYLINE
  5
1004
330
1F
100
AcDbEntity
  8
floor 3 keepouts
 62
     3
100
AcDbPolyline
 90
       33
 70
     0
 43
1.0
 10
429.9999999999999
 20
-2835.0
 10
429.9999999999999
 20
-3260.0
 10
599.9999999999999
 20
-3260.0
 10
599.9999999999999
 20
-3555.0
 10
984.9999999999998
 20
-3555.0
 10
984.9999999999998
 20
-3315.0
 10
1315.0
 20
-3315.0
 10
1315.0
 20
-3555.0
 10
1700.0
 20
-3555.0
 10
1700.0
 20
-3320.0
 10
2030.0
 20
-3320.0
 10
2030.0
 20
-3555.0
 10
2415.0
 20
-3555.0
 10
2415.0
 20
-3320.0
 10
3465.0
 20
-3320.0
 10
3465.0
 20
-3555.0
 10
3849.999999999999
 20
-3555.0
 10
3849.999999999999
 20
-3270.0
 10
4014.999999999999
 20
-3270.0
 10
4014.999999999999
 20
-2830.0
 10
3934.999999999999
 20
-2830.0
 10
3934.999999999999
 20
-2880.0
 10
3849.999999999999
 20
-2880.0
 10
3849.999999999999
 20
-2830.0
 10
1955.0
 20
-2830.0
 10
1955.0
 20
-2880.0
 10
1865.0
 20
-2880.0
 10
1865.0
 20
-2830.0
 10
594.9999999999999
 20
-2830.0
 10
594.9999999999999
 20
-2880.0
 10
514.9999999999999
 20
-2880.0
 10
514.9999999999999
 20
-2835.0
 10
429.9999999999999
 20
-2835.0
  0
LWPOLYLINE
  5
1007
330
1F
100
AcDbEntity
  8
floor 1 keepouts
100
AcDbPolyline
 90
        4
 70
     1
 43
0.0
 10
1815.0
 20
-744.9999999999999
 10
1815.0
 20
-795.0
 10
1970.0
 20
-795.0
 10
1970.0
 20
-744.9999999999999
  0
LWPOLYLINE
  5
1008
330
1F
100
AcDbEntity
  8
floor 1 keepouts
100
AcDbPolyline
 90
        4
 70
     1
 43
0.0
 10
2410.0
 20
-794.9999999999999
 10
2410.0
 20
-674.9999999999999
 10
2360.0
 20
-674.9999999999999
 10
2360.0
 20
-794.9999999999999
  0
LWPOLYLINE
  5
1009
330
1F
100
AcDbEntity
  8
floor 1 keepouts
100
AcDbPolyline
 90
        4
 70
     1
 43
0.0
 10
1230.0
 20
-674.9999999999999
 10
1230.0
 20
-794.9999999999999
 10
1270.0
 20
-794.9999999999999
 10
1270.0
 20
-674.9999999999999
  0
CIRCLE
  5
103A
330
1F
100
AcDbEntity
  8
floor 1 beacons
100
AcDbCircle
 10
3821.180339887499
 20
-653.819660112501
 30
0.0
 40
11.18033988749895
1001
PE_URL
1000
id=03010002;rssi1m=-67;height=2.5
1002
{
1000

1000

1002
{
1071
        0
1002
}
1002
}
  0
CIRCLE
  5
1069
330
1F
100
AcDbEntity
  8
floor 1 beacons
100
AcDbCircle
 10
3671.180339887499
 20
-733.819660112501
 30
0.0
 40
11.18033988749895
1001
PE_URL
1000
id=03010003;rssi1m=-67;height=2.5
1002
{
1000

1000

1002
{
1071
        0
1002
}
1002
}
  0
CIRCLE
  5
1096
330
1F
100
AcDbEntity
  8
floor 1 beacons
100
AcDbCircle
 10
3490.0
 20
-599.9999999999999
 30
0.0
 40
11.18033988749895
1001
PE_URL
1000
id=03010005;rssi1m=-67;height=2.5
1002
{
1000

1000

1002
{
1071
        0
1002
}
1002
}
  0
CIRCLE
  5
10C3
330
1F
100
AcDbEntity
  8
floor 1 beacons
100
AcDbCircle
 10
3520.0
 20
-914.9999999999999
 30
0.0
 40
11.18033988749895
1001
PE_URL
1000
id=03010004;rssi1m=-67;height=2.5
1002
{
1000

1000

1002
{
1071
        0
1002
}
1002
}
  0
CIRCLE
  5
10F0
330
1F
100
AcDbEntity
  8
floor 1 beacons
100
AcDbCircle
 10
3325.0
 20
-734.9999999999999
 30
0.0
 40
11.18033988749895
1001
PE_URL
1000
id=03010006;rssi1m=-67;height=3.0
1002
{
1000

1000

1002
{
1071
        0
1002
}
1002
}
  0
CIRCLE
  5
111D
330
1F
100
AcDbEntity
  8
floor 1 beacons
100
AcDbCircle
 10
3270.0
 20
-609.9999999999999
 30
0.0
 40
11.18033988749895
1001
PE_URL
1000
id=03010007;rssi1m=-67;height=3.0
1002
{
1000

1000

1002
{
1071
        0
1002
}
1002
}
  0
CIRCLE
  5
114A
330
1F
100
AcDbEntity
  8
floor 1 beacons
100
AcDbCircle
 10
3125.0
 20
-729.9999999999999
 30
0.0
 40
11.18033988749895
1001
PE_URL
1000
id=03010008;rssi1m=-67;height=3.0
1002
{
1000

1000

1002
{
1071
        0
1002
}
1002
}
  0
CIRCLE
  5
1177
330
1F
100
AcDbEntity
  8
floor 1 beacons
100
AcDbCircle
 10
3030.0
 20
-571.1803398874988
 30
0.0
 40
11.18033988749895
1001
PE_URL
1000
id=03010009;rssi1m=-67;height=3.0
1002
{
1000

1000

1002
{
1071
        0
1002
}
1002
}
  0
CIRCLE
  5
11A4
330
1F
100
AcDbEntity
  8
floor 1 beacons
100
AcDbCircle
 10
2860.0
 20
-729.9999999999999
 30
0.0
 40
11.18033988749895
1001
PE_URL
1000
id=0301000A;rssi1m=-67;height=3.0
1002
{
1000

1000

1002
{
1071
        0
1002
}
1002
}
  0
CIRCLE
  5
11D1
330
1F
100
AcDbEntity
  8
floor 1 beacons
100
AcDbCircle
 10
2860.0
 20
-559.9999999999999
 30
0.0
 40
11.18033988749895
1001
PE_URL
1000
id=0301000B;rssi1m=-67;height=3.0
1002
{
1000

1000

1002
{
1071
        0
1002
}
1002
}
  0
CIRCLE
  5
11FE
330
1F
100
AcDbEntity
  8
floor 1 beacons
100
AcDbCircle
 10
2490.0
 20
-729.9999999999999
 30
0.0
 40
11.18033988749895
1001
PE_URL
1000
id=0301000C;rssi1m=-67;height=2.5
1002
{
1000

1000

1002
{
1071
        0
1002
}
1002
}
  0
CIRCLE
  5
122B
330
1F
100
AcDbEntity
  8
floor 1 beacons
100
AcDbCircle
 10
2690.0
 20
-559.9999999999999
 30
0.0
 40
11.18033988749895
1001
PE_URL
1000
id=0301000D;rssi1m=-67;height=3.0
1002
{
1000

1000

1002
{
1071
        0
1002
}
1002
}
  0
CIRCLE
  5
1258
330
1F
100
AcDbEntity
  8
floor 1 beacons
100
AcDbCircle
 10
2520.0
 20
-559.9999999999999
 30
0.0
 40
11.18033988749895
1001
PE_URL
1000
id=0301000F;rssi1m=-67;height=3.0
1002
{
1000

1000

1002
{
1071
        0
1002
}
1002
}
  0
CIRCLE
  5
12B2
330
1F
100
AcDbEntity
  8
floor 0 beacons
100
AcDbCircle
 10
2275.0
 20
294.9999999999999
 30
0.0
 40
11.18033988749895
1001
PE_URL
1000
id=03010043;rssi1m=-67;height=2.5
1002
{
1000

1000

1002
{
1071
        0
1002
}
1002
}
  0
CIRCLE
  5
12DF
330
1F
100
AcDbEntity
  8
floor 0 beacons
100
AcDbCircle
 10
2035.0
 20
195.0
 30
0.0
 40
11.18033988749895
1001
PE_URL
1000
id=03010045;rssi1m=-67;height=2.5
1002
{
1000

1000

1002
{
1071
        0
1002
}
1002
}
  0
CIRCLE
  5
130C
330
1F
100
AcDbEntity
  8
floor 0 beacons
100
AcDbCircle
 10
2110.0
 20
379.9999999999999
 30
0.0
 40
11.18033988749895
1001
PE_URL
1000
id=03010044;rssi1m=-67;height=2.5
1002
{
1000

1000

1002
{
1071
        0
1002
}
1002
}
  0
CIRCLE
  5
1339
330
1F
100
AcDbEntity
  8
floor 0 beacons
100
AcDbCircle
 10
1630.0
 20
195.0
 30
0.0
 40
11.18033988749895
1001
PE_URL
1000
id=03010046;rssi1m=-67;height=2.5
1002
{
1000

1000

1002
{
1071
        0
1002
}
1002
}
  0
CIRCLE
  5
1366
330
1F
100
AcDbEntity
  8
floor 1 beacons
100
AcDbCircle
 10
2240.0
 20
-734.9999999999999
 30
0.0
 40
11.18033988749895
1001
PE_URL
1000
id=03010014;rssi1m=-67;height=2.5
1002
{
1000

1000

1002
{
1071
        0
1002
}
1002
}
  0
CIRCLE
  5
13C0
330
1F
100
AcDbEntity
  8
floor 1 beacons
100
AcDbCircle
 10
2010.0
 20
-909.9999999999999
 30
0.0
 40
11.18033988749895
1001
PE_URL
1000
id=03010015;rssi1m=-67;height=2.5
1002
{
1000

1000

1002
{
1071
        0
1002
}
1002
}
  0
CIRCLE
  5
13ED
330
1F
100
AcDbEntity
  8
floor 1 beacons
100
AcDbCircle
 10
2085.0
 20
-554.9999999999999
 30
0.0
 40
11.18033988749895
1001
PE_URL
1000
id=03010016;rssi1m=-67;height=3.0
1002
{
1000

1000

1002
{
1071
        0
1002
}
1002
}
  0
CIRCLE
  5
141A
330
1F
100
AcDbEntity
  8
floor 1 beacons
100
AcDbCircle
 10
1716.180339887499
 20
-813.819660112501
 30
0.0
 40
11.18033988749895
1001
PE_URL
1000
id=0301002c;rssi1m=-67;height=2.5
  0
CIRCLE
  5
1447
330
1F
100
AcDbEntity
  8
floor 1 beacons
100
AcDbCircle
 10
1890.0
 20
-649.9999999999999
 30
0.0
 40
11.18033988749895
1001
PE_URL
1000
id=03010018;rssi1m=-67;height=2.5
1002
{
1000

1000

1002
{
1071
        0
1002
}
1002
}
  0
CIRCLE
  5
1474
330
1F
100
AcDbEntity
  8
floor 1 beacons
100
AcDbCircle
 10
1526.180339887499
 20
-658.819660112501
 30
0.0
 40
11.18033988749895
1001
PE_URL
1000
id=0301002b;rssi1m=-67;height=2.5
1002
{
1000

1000

1002
{
1071
        0
1002
}
1002
}
  0
CIRCLE
  5
14A1
330
1F
100
AcDbEntity
  8
floor 1 beacons
100
AcDbCircle
 10
1550.0
 20
-899.9999999999999
 30
0.0
 40
11.18033988749895
1001
PE_URL
1000
id=03010019;rssi1m=-67;height=2.5
1002
{
1000

1000

1002
{
1071
        0
1002
}
1002
}
  0
CIRCLE
  5
14CE
330
1F
100
AcDbEntity
  8
floor 1 beacons
100
AcDbCircle
 10
1281.180339887499
 20
-653.819660112501
 30
0.0
 40
11.18033988749895
1001
PE_URL
1000
id=0301001C;rssi1m=-67;height=2.5
1002
{
1000

1000

1002
{
1071
        0
1002
}
1002
}
  0
CIRCLE
  5
14FB
330
1F
100
AcDbEntity
  8
floor 1 beacons
100
AcDbCircle
 10
1281.180339887499
 20
-818.819660112501
 30
0.0
 40
11.18033988749895
1001
PE_URL
1000
id=0301001B;rssi1m=-67;height=2.5
1002
{
1000

1000

1002
{
1071
        0
1002
}
1002
}
  0
CIRCLE
  5
1528
330
1F
100
AcDbEntity
  8
floor 1 beacons
100
AcDbCircle
 10
1011.180339887499
 20
-653.819660112501
 30
0.0
 40
11.18033988749895
1001
PE_URL
1000
id=0301001E;rssi1m=-67;height=2.5
1002
{
1000

1000

1002
{
1071
        0
1002
}
1002
}
  0
CIRCLE
  5
1555
330
1F
100
AcDbEntity
  8
floor 1 beacons
100
AcDbCircle
 10
1011.180339887499
 20
-818.819660112501
 30
0.0
 40
11.18033988749895
1001
PE_URL
1000
id=0301001D;rssi1m=-67;height=2.5
1002
{
1000

1000

1002
{
1071
        0
1002
}
1002
}
  0
CIRCLE
  5
1582
330
1F
100
AcDbEntity
  8
floor 1 beacons
100
AcDbCircle
 10
806.1803398874989
 20
-653.819660112501
 30
0.0
 40
11.18033988749895
1001
PE_URL
1000
id=03010020;rssi1m=-67;height=2.5
1002
{
1000

1000

1002
{
1071
        0
1002
}
1002
}
  0
CIRCLE
  5
15AF
330
1F
100
AcDbEntity
  8
floor 1 beacons
100
AcDbCircle
 10
866.1803398874988
 20
-904.9999999999999
 30
0.0
 40
11.18033988749895
1001
PE_URL
1000
id=0301001F;rssi1m=-67;height=2.5
1002
{
1000

1000

1002
{
1071
        0
1002
}
1002
}
  0
CIRCLE
  5
15DC
330
1F
100
AcDbEntity
  8
floor 1 beacons
100
AcDbCircle
 10
636.1803398874989
 20
-818.819660112501
 30
0.0
 40
11.18033988749895
1001
PE_URL
1000
id=03010021;rssi1m=-67;height=2.5
1002
{
1000

1000

1002
{
1071
        0
1002
}
1002
}
  0
CIRCLE
  5
1609
330
1F
100
AcDbEntity
  8
floor 1 beacons
100
AcDbCircle
 10
636.1803398874989
 20
-653.819660112501
 30
0.0
 40
11.18033988749895
1001
PE_URL
1000
id=03010022;rssi1m=-67;height=2.5
1002
{
1000

1000

1002
{
1071
        0
1002
}
1002
}
  0
CIRCLE
  5
1675
330
1F
100
AcDbEntity
  8
floor 1 beacons
100
AcDbCircle
 10
2180.0
 20
-939.9999999999999
 30
0.0
 40
11.18033988749895
1001
PE_URL
1000
id=03010023;rssi1m=-67;height=3.0
1002
{
1000

1000

1002
{
1071
        0
1002
}
1002
}
  0
CIRCLE
  5
16F7
330
1F
100
AcDbEntity
  8
floor 1 beacons
100
AcDbCircle
 10
2485.0
 20
-939.9999999999999
 30
0.0
 40
11.18033988749895
1001
PE_URL
1000
id=03010024;rssi1m=-67;height=3.0
1002
{
1000

1000

1002
{
1071
        0
1002
}
1002
}
  0
CIRCLE
  5
1723
330
1F
100
AcDbEntity
  8
floor 0 beacons
100
AcDbCircle
 10
1240.0
 20
200.0
 30
0.0
 40
11.18033988749895
1001
PE_URL
1000
id=03010047;rssi1m=-67;height=2.5
1002
{
1000

1000

1002
{
1071
        0
1002
}
1002
}
  0
CIRCLE
  5
174F
330
1F
100
AcDbEntity
  8
floor 1 beacons
100
AcDbCircle
 10
2830.0
 20
-944.9999999999999
 30
0.0
 40
11.18033988749895
1001
PE_URL
1000
id=03010026;rssi1m=-67;height=3.0
1002
{
1000

1000

1002
{
1071
        0
1002
}
1002
}
  0
CIRCLE
  5
177B
330
1F
100
AcDbEntity
  8
floor 1 beacons
100
AcDbCircle
 10
3015.0
 20
-944.9999999999999
 30
0.0
 40
11.18033988749895
1001
PE_URL
1000
id=03010027;rssi1m=-67;height=3.0
1002
{
1000

1000

1002
{
1071
        0
1002
}
1002
}
  0
CIRCLE
  5
17A7
330
1F
100
AcDbEntity
  8
floor 1 beacons
100
AcDbCircle
 10
3275.0
 20
-949.9999999999999
 30
0.0
 40
11.18033988749895
1001
PE_URL
1000
id=03010028;rssi1m=-67;height=3.0
1002
{
1000

1000

1002
{
1071
        0
1002
}
1002
}
  0
CIRCLE
  5
17FD
330
1F
100
AcDbEntity
  8
floor 1 beacons
100
AcDbCircle
 10
1556.180339887499
 20
-1093.819660112501
 30
0.0
 40
11.18033988749895
1001
PE_URL
1000
id=0301002a;rssi1m=-67;height=2.5
1002
{
1000

1000

1002
{
1071
        0
1002
}
1002
}
  0
CIRCLE
  5
1829
330
1F
100
AcDbEntity
  8
floor 1 beacons
100
AcDbCircle
 10
866.1803398874988
 20
-1108.819660112501
 30
0.0
 40
11.18033988749895
1001
PE_URL
1000
id=03010029;rssi1m=-67;height=2.5
1002
{
1000

1000

1002
{
1071
        0
1002
}
1002
}
  0
LWPOLYLINE
  5
1835
330
1F
100
AcDbEntity
  8
floor 1 routes
100
AcDbPolyline
 90
        4
 70
     0
 43
1.0
 10
629.9999999999999
 20
-814.9999999999999
 10
3830.0
 20
-814.9999999999999
 10
3830.0
 20
-649.9999999999999
 10
1945.0
 20
-649.9999999999999
  0
LWPOLYLINE
  5
1836
330
1F
100
AcDbEntity
  8
floor 1 routes
100
AcDbPolyline
 90
        3
 70
     0
 43
1.0
 10
1830.0
 20
-649.9999999999999
 10
629.9999999999999
 20
-649.9999999999999
 10
629.9999999999999
 20
-814.9999999999999
  0
LWPOLYLINE
  5
1838
330
1F
100
AcDbEntity
  8
floor 1 routes
100
AcDbPolyline
 90
        2
 70
     0
 43
1.0
 10
2000.0
 20
-649.9999999999999
 10
2000.0
 20
-814.9999999999999
  0
LWPOLYLINE
  5
1839
330
1F
100
AcDbEntity
  8
floor 1 routes
100
AcDbPolyline
 90
        2
 70
     0
 43
1.0
 10
2160.0
 20
-649.9999999999999
 10
2160.0
 20
-814.9999999999999
  0
LWPOLYLINE
  5
183D
330
1F
100
AcDbEntity
  8
floor 1 walls
100
AcDbPolyline
 90
        5
 70
     0
 43
1.0
 10
2445.0
 20
-674.9999999999999
 10
2445.0
 20
-694.9999999999999
 10
2530.0
 20
-694.9999999999999
 10
2530.0
 20
-674.9999999999999
 10
2445.0
 20
-674.9999999999999
1001
PE_URL
1000
material=air
  0
LWPOLYLINE
  5
183F
330
1F
100
AcDbEntity
  8
floor 1 routes
100
AcDbPolyline
 90
        2
 70
     0
 43
1.0
 10
2425.0
 20
-649.9999999999999
 10
2425.0
 20
-814.9999999999999
  0
LWPOLYLINE
  5
1840
330
1F
100
AcDbEntity
  8
floor 1 routes
100
AcDbPolyline
 90
        3
 70
     0
 43
1.0
 10
2425.0
 20
-704.9999999999999
 10
2565.0
 20
-704.9999999999999
 10
2565.0
 20
-649.9999999999999
  0
LWPOLYLINE
  5
1841
330
1F
100
AcDbEntity
  8
floor 1 routes
100
AcDbPolyline
 90
        2
 70
     0
 43
1.0
 10
2565.0
 20
-704.9999999999999
 10
2565.0
 20
-814.9999999999999
  0
LWPOLYLINE
  5
1844
330
1F
100
AcDbEntity
  8
floor 1 walls
100
AcDbPolyline
 90
        5
 70
     0
 43
1.0
 10
1615.0
 20
-674.9999999999999
 10
1615.0
 20
-694.9999999999999
 10
1695.0
 20
-694.9999999999999
 10
1695.0
 20
-674.9999999999999
 10
1615.0
 20
-674.9999999999999
1001
PE_URL
1000
material=air
  0
CIRCLE
  5
1846
330
1F
100
AcDbEntity
  8
floor 1 routes
100
AcDbCircle
 10
3884.999999999999
 20
-529.9999999999999
 30
0.0
 40
18.02775637731995
1001
PE_URL
1000
keywords=stairs;id=4001
  0
CIRCLE
  5
189C
330
1F
100
AcDbEntity
  8
floor 1 routes
100
AcDbCircle
 10
3924.999999999999
 20
-529.9999999999999
 30
0.0
 40
18.02775637731995
1001
PE_URL
1000
keywords=stairs;id=4002
  0
LWPOLYLINE
  5
189D
330
1F
100
AcDbEntity
  8
floor 1 routes
100
AcDbPolyline
 90
        3
 70
     0
 43
1.0
 10
3830.0
 20
-649.9999999999999
 10
3884.999999999999
 20
-649.9999999999999
 10
3884.999999999999
 20
-529.9999999999999
  0
LWPOLYLINE
  5
189E
330
1F
100
AcDbEntity
  8
floor 1 routes
100
AcDbPolyline
 90
        3
 70
     0
 43
1.0
 10
3924.999999999999
 20
-529.9999999999999
 10
3924.999999999999
 20
-649.9999999999999
 10
3884.999999999999
 20
-649.9999999999999
  0
CIRCLE
  5
18C9
330
1F
100
AcDbEntity
  8
floor 1 routes
100
AcDbCircle
 10
3884.999999999999
 20
-899.9999999999999
 30
0.0
 40
18.02775637731995
1001
PE_URL
1000
keywords=toilet
  0
CIRCLE
  5
18F4
330
1F
100
AcDbEntity
  8
floor 1 routes
100
AcDbCircle
 10
3889.999999999999
 20
-804.9999999999999
 30
0.0
 40
18.02775637731995
1001
PE_URL
1000
keywords=toilet
  0
LWPOLYLINE
  5
18F5
330
1F
100
AcDbEntity
  8
floor 1 routes
100
AcDbPolyline
 90
        2
 70
     0
 43
1.0
 10
3889.999999999999
 20
-804.9999999999999
 10
3830.0
 20
-804.9999999999999
  0
LWPOLYLINE
  5
18F6
330
1F
100
AcDbEntity
  8
floor 1 routes
100
AcDbPolyline
 90
        3
 70
     0
 43
1.0
 10
3884.999999999999
 20
-899.9999999999999
 10
3830.0
 20
-899.9999999999999
 10
3830.0
 20
-814.9999999999999
  0
LWPOLYLINE
  5
18F7
330
1F
100
AcDbEntity
  8
floor 1 routes
100
AcDbPolyline
 90
        2
 70
     0
 43
1.0
 10
3630.0
 20
-814.9999999999999
 10
3630.0
 20
-649.9999999999999
  0
CIRCLE
  5
1922
330
1F
100
AcDbEntity
  8
floor 1 routes
100
AcDbCircle
 10
3630.0
 20
-734.9999999999999
 30
0.0
 40
18.02775637731995
1001
PE_URL
1000
keywords=Bubble screen
  0
LWPOLYLINE
  5
1923
330
1F
100
AcDbEntity
  8
floor 1 routes
100
AcDbPolyline
 90
        2
 70
     0
 43
1.0
 10
3570.0
 20
-814.9999999999999
 10
3570.0
 20
-649.9999999999999
  0
CIRCLE
  5
194E
330
1F
100
AcDbEntity
  8
floor 1 routes
100
AcDbCircle
 10
3570.0
 20
-709.9999999999999
 30
0.0
 40
18.02775637731995
1001
PE_URL
1000
keywords=Printer
  0
CIRCLE
  5
1979
330
1F
100
AcDbEntity
  8
floor 1 routes
100
AcDbCircle
 10
2505.0
 20
-704.9999999999999
 30
0.0
 40
18.02775637731995
1001
PE_URL
1000
keywords=Kitchen,Coffee
  0
CIRCLE
  5
19A4
330
1F
100
AcDbEntity
  8
floor 1 routes
100
AcDbCircle
 10
1655.0
 20
-699.9999999999999
 30
0.0
 40
18.02775637731995
1001
PE_URL
1000
keywords=Kitchen,Coffee
  0
LWPOLYLINE
  5
19A5
330
1F
100
AcDbEntity
  8
floor 1 routes
100
AcDbPolyline
 90
        5
 70
     0
 43
1.0
 10
1770.0
 20
-649.9999999999999
 10
1770.0
 20
-699.9999999999999
 10
1655.0
 20
-699.9999999999999
 10
1595.0
 20
-699.9999999999999
 10
1595.0
 20
-649.9999999999999
  0
LWPOLYLINE
  5
19A6
330
1F
100
AcDbEntity
  8
floor 1 routes
100
AcDbPolyline
 90
        2
 70
     0
 43
1.0
 10
1770.0
 20
-699.9999999999999
 10
1770.0
 20
-814.9999999999999
  0
LWPOLYLINE
  5
19A7
330
1F
100
AcDbEntity
  8
floor 1 routes
100
AcDbPolyline
 90
        2
 70
     0
 43
1.0
 10
1595.0
 20
-699.9999999999999
 10
1595.0
 20
-814.9999999999999
  0
LWPOLYLINE
  5
19A9
330
1F
100
AcDbEntity
  8
floor 1 walls
100
AcDbPolyline
 90
        5
 70
     0
 43
1.0
 10
664.9999999999999
 20
-669.9999999999999
 10
664.9999999999999
 20
-799.9999999999999
 10
684.9999999999999
 20
-799.9999999999999
 10
684.9999999999999
 20
-669.9999999999999
 10
664.9999999999999
 20
-669.9999999999999
1001
PE_URL
1000
material=air
  0
CIRCLE
  5
19D4
330
1F
100
AcDbEntity
  8
floor 1 routes
100
AcDbCircle
 10
704.9999999999999
 20
-744.9999999999999
 30
0.0
 40
18.02775637731995
1001
PE_URL
1000
keywords=Library
  0
LWPOLYLINE
  5
19D6
330
1F
100
AcDbEntity
  8
floor 1 routes
100
AcDbPolyline
 90
        2
 70
     0
 43
1.0
 10
704.9999999999999
 20
-744.9999999999999
 10
704.9999999999999
 20
-814.9999999999999
  0
LWPOLYLINE
  5
19D7
330
1F
100
AcDbEntity
  8
floor 1 routes
100
AcDbPolyline
 90
        2
 70
     0
 43
1.0
 10
704.9999999999999
 20
-744.9999999999999
 10
704.9999999999999
 20
-649.9999999999999
  0
CIRCLE
  5
1A02
330
1F
100
AcDbEntity
  8
floor 1 routes
100
AcDbCircle
 10
1950.0
 20
-854.9999999999999
 30
0.0
 40
18.02775637731995
1001
PE_URL
1000
keywords=toilet
  0
CIRCLE
  5
1A2D
330
1F
100
AcDbEntity
  8
floor 1 routes
100
AcDbCircle
 10
1950.0
 20
-954.9999999999999
 30
0.0
 40
18.02775637731995
1001
PE_URL
1000
keywords=toilet
  0
CIRCLE
  5
1A58
330
1F
100
AcDbEntity
  8
floor 1 routes
100
AcDbCircle
 10
1835.0
 20
-854.9999999999999
 30
0.0
 40
18.02775637731995
1001
PE_URL
1000
keywords=toilet
  0
CIRCLE
  5
1A83
330
1F
100
AcDbEntity
  8
floor 1 routes
100
AcDbCircle
 10
1840.0
 20
-949.9999999999999
 30
0.0
 40
18.02775637731995
1001
PE_URL
1000
keywords=toilet
  0
LWPOLYLINE
  5
1A84
330
1F
100
AcDbEntity
  8
floor 1 routes
100
AcDbPolyline
 90
        3
 70
     0
 43
1.0
 10
1835.0
 20
-854.9999999999999
 10
1770.0
 20
-854.9999999999999
 10
1770.0
 20
-814.9999999999999
  0
LWPOLYLINE
  5
1A85
330
1F
100
AcDbEntity
  8
floor 1 routes
100
AcDbPolyline
 90
        3
 70
     0
 43
1.0
 10
1840.0
 20
-949.9999999999999
 10
1770.0
 20
-949.9999999999999
 10
1770.0
 20
-854.9999999999999
  0
LWPOLYLINE
  5
1A86
330
1F
100
AcDbEntity
  8
floor 1 routes
100
AcDbPolyline
 90
        3
 70
     0
 43
1.0
 10
1950.0
 20
-854.9999999999999
 10
2000.0
 20
-854.9999999999999
 10
2000.0
 20
-814.9999999999999
  0
LWPOLYLINE
  5
1A87
330
1F
100
AcDbEntity
  8
floor 1 routes
100
AcDbPolyline
 90
        3
 70
     0
 43
1.0
 10
1950.0
 20
-954.9999999999999
 10
2000.0
 20
-954.9999999999999
 10
2000.0
 20
-854.9999999999999
  0
LWPOLYLINE
  5
1A88
330
1F
100
AcDbEntity
  8
floor 1 routes
100
AcDbPolyline
 90
        2
 70
     0
 43
1.0
 10
3130.0
 20
-649.9999999999999
 10
3130.0
 20
-814.9999999999999
  0
LWPOLYLINE
  5
1A89
330
1F
100
AcDbEntity
  8
floor 1 routes
100
AcDbPolyline
 90
        2
 70
     0
 43
1.0
 10
2720.0
 20
-814.9999999999999
 10
2720.0
 20
-649.9999999999999
  0
CIRCLE
  5
1AB4
330
1F
100
AcDbEntity
  8
floor 1 routes
100
AcDbCircle
 10
3830.0
 20
-599.9999999999999
 30
0.0
 40
18.02775637731995
1001
PE_URL
1000
keywords=elevator;id=4003
  0
LWPOLYLINE
  5
1AB5
330
1F
100
AcDbEntity
  8
floor 1 routes
100
AcDbPolyline
 90
        2
 70
     0
 43
1.0
 10
3830.0
 20
-649.9999999999999
 10
3830.0
 20
-599.9999999999999
  0
CIRCLE
  5
1AE0
330
1F
100
AcDbEntity
  8
floor 1 routes
100
AcDbCircle
 10
2240.0
 20
-734.9999999999999
 30
0.0
 40
18.02775637731995
1001
PE_URL
1000
keywords=elli
  0
LWPOLYLINE
  5
1AE1
330
1F
100
AcDbEntity
  8
floor 1 routes
100
AcDbPolyline
 90
        2
 70
     0
 43
1.0
 10
2240.0
 20
-734.9999999999999
 10
2240.0
 20
-649.9999999999999
  0
LWPOLYLINE
  5
1AE2
330
1F
100
AcDbEntity
  8
floor 1 routes
100
AcDbPolyline
 90
        2
 70
     0
 43
1.0
 10
2240.0
 20
-734.9999999999999
 10
2240.0
 20
-814.9999999999999
  0
LWPOLYLINE
  5
1AE3
330
1F
100
AcDbEntity
  8
floor 1 routes
100
AcDbPolyline
 90
        2
 70
     0
 43
1.0
 10
2240.0
 20
-734.9999999999999
 10
2160.0
 20
-734.9999999999999
  0
CIRCLE
  5
1B13
330
1F
100
AcDbEntity
  8
floor 1 beacons
100
AcDbCircle
 10
1895.0
 20
-814.9999999999999
 30
0.0
 40
11.18033988749895
1001
PE_URL
1000
id=03010017;rssi1m=-67;height=2.5
1002
{
1000

1000

1002
{
1071
        0
1002
}
1002
}
  0
LWPOLYLINE
  5
1B1C
330
1F
100
AcDbEntity
  8
floor 1 walls
100
AcDbPolyline
 90
        2
 70
     0
 43
1.0
 10
3545.0
 20
-569.9999999999999
 10
3430.0
 20
-569.9999999999999
  0
LWPOLYLINE
  5
1DB4
330
1F
100
AcDbEntity
  8
floor 0 walls
100
AcDbPolyline
 90
       31
 70
     0
 43
1.0
 10
3640.0
 20
334.9999999999999
 10
3650.0
 20
344.9999999999999
 10
3665.0
 20
354.9999999999999
 10
3680.0
 20
359.9999999999999
 10
3700.0
 20
359.9999999999999
 10
3720.0
 20
354.9999999999999
 10
3740.0
 20
339.9999999999999
 10
3755.0
 20
319.9999999999999
 10
3760.0
 20
304.9999999999999
 10
3760.0
 20
279.9999999999999
 10
3750.0
 20
259.9999999999999
 10
3735.0
 20
239.9999999999999
 10
3710.0
 20
225.0
 10
3685.0
 20
225.0
 10
3665.0
 20
230.0
 10
3640.0
 20
249.9999999999999
 10
3630.0
 20
269.9999999999999
 10
3625.0
 20
294.9999999999999
 10
3650.0
 20
294.9999999999999
 10
3655.0
 20
274.9999999999999
 10
3670.0
 20
259.9999999999999
 10
3690.0
 20
254.9999999999999
 10
3720.0
 20
264.9999999999999
 10
3735.0
 20
284.9999999999999
 10
3735.0
 20
309.9999999999999
 10
3725.0
 20
329.9999999999999
 10
3705.0
 20
339.9999999999999
 10
3680.0
 20
339.9999999999999
 10
3660.0
 20
329.9999999999999
 10
3655.0
 20
319.9999999999999
 10
3640.0
 20
334.9999999999999
1001
PE_URL
1000
material=air
  0
LWPOLYLINE
  5
1DE0
330
1F
100
AcDbEntity
  8
floor 0 keepouts
 62
     1
100
AcDbPolyline
 90
       20
 70
     0
 43
1.0
 10
3640.0
 20
334.9999999999999
 10
3650.0
 20
344.9999999999999
 10
3665.0
 20
354.9999999999999
 10
3680.0
 20
359.9999999999999
 10
3700.0
 20
359.9999999999999
 10
3720.0
 20
354.9999999999999
 10
3740.0
 20
339.9999999999999
 10
3755.0
 20
319.9999999999999
 10
3760.0
 20
304.9999999999999
 10
3760.0
 20
279.9999999999999
 10
3750.0
 20
259.9999999999999
 10
3735.0
 20
239.9999999999999
 10
3710.0
 20
225.0
 10
3685.0
 20
225.0
 10
3665.0
 20
230.0
 10
3640.0
 20
249.9999999999999
 10
3630.0
 20
269.9999999999999
 10
3625.0
 20
294.9999999999999
 10
3628.734209328968
 20
316.6384778770729
 10
3640.0
 20
334.9999999999999
1001
PE_URL
1000

  0
LWPOLYLINE
  5
1DE1
330
1F
100
AcDbEntity
  8
floor 0 keepouts
 62
     1
100
AcDbPolyline
 90
        2
 70
     0
 43
1.0
 10
3640.837076318749
 20
334.1629236812508
 10
3640.0
 20
334.9999999999999
  0
LWPOLYLINE
  5
1DE2
330
1F
100
AcDbEntity
  8
floor 0 keepouts
100
AcDbPolyline
 90
        2
 70
     0
 43
1.0
 10
3110.0
 20
354.9999999999999
 10
3250.0
 20
354.9999999999999
  0
LWPOLYLINE
  5
1DE4
330
1F
100
AcDbEntity
  8
floor 0 keepouts
100
AcDbPolyline
 90
       12
 70
     0
 43
1.0
 10
1975.0
 20
165.0
 10
1975.0
 20
55.0
 10
1735.0
 20
54.99999999999999
 10
1735.0
 20
-165.0
 10
1369.532007974139
 20
-164.9999999999999
 10
1370.0
 20
59.99999999999999
 10
1040.0
 20
59.99999999999999
 10
1040.0
 20
-165.0
 10
674.9999999999999
 20
-165.0
 10
674.9999999999999
 20
105.0
 10
674.9999999999999
 20
165.0
 10
1975.0
 20
165.0
  0
LWPOLYLINE
  5
1DE5
330
1F
100
AcDbEntity
  8
floor 0 keepouts
100
AcDbPolyline
 90
       12
 70
     0
 43
1.0
 10
649.9999999999999
 20
474.9566985793726
 10
649.9999999999999
 20
404.9999999999999
 10
674.9999999999999
 20
404.9999999999999
 10
674.9999999999999
 20
230.0
 10
1980.0
 20
230.0
 10
1980.0
 20
339.9999999999999
 10
1820.0
 20
339.9999999999999
 10
1820.0
 20
399.9999999999999
 10
1820.0
 20
524.9999999999999
 10
670.0
 20
524.9999999999999
 10
669.9999999999999
 20
474.9999999999999
 10
649.9999999999999
 20
474.9999999999999
  0
LWPOLYLINE
  5
1DE6
330
1F
100
AcDbEntity
  8
floor 0 keepouts
100
AcDbPolyline
 90
        7
 70
     0
 43
1.0
 10
2090.0
 20
524.9999999999999
 10
2090.0
 20
404.9999999999999
 10
1960.0
 20
404.9999999999999
 10
1960.0
 20
474.9999999999999
 10
1970.0
 20
474.9999999999999
 10
1970.0
 20
524.9999999999999
 10
2090.0
 20
524.9999999999999
  0
LWPOLYLINE
  5
1DE7
330
1F
100
AcDbEntity
  8
floor 0 keepouts
100
AcDbPolyline
 90
        5
 70
     0
 43
1.0
 10
2130.0
 20
524.9999999999999
 10
2130.0
 20
404.9999999999999
 10
3395.0
 20
404.9999999999999
 10
3395.0
 20
524.9999999999999
 10
2130.0
 20
524.9999999999999
  0
LWPOLYLINE
  5
1DE8
330
1F
100
AcDbEntity
  8
floor 0 keepouts
100
AcDbPolyline
 90
        6
 70
     0
 43
1.0
 10
3450.0
 20
524.9999999999999
 10
3450.0
 20
399.9999999999999
 10
3570.0
 20
399.9999999999999
 10
3570.0
 20
529.9999999999999
 10
3450.0
 20
529.9999999999999
 10
3450.0
 20
524.9999999999999
  0
LWPOLYLINE
  5
1DE9
330
1F
100
AcDbEntity
  8
floor 0 keepouts
100
AcDbPolyline
 90
        7
 70
     0
 43
1.0
 10
3839.999999999999
 20
399.9999999999999
 10
3839.999999999999
 20
479.9999999999999
 10
3820.0
 20
479.9999999999999
 10
3820.0
 20
529.9999999999999
 10
3630.0
 20
529.9999999999999
 10
3630.0
 20
399.9999999999999
 10
3839.999999999999
 20
399.9999999999999
  0
LWPOLYLINE
  5
1DEA
330
1F
100
AcDbEntity
  8
floor 0 keepouts
100
AcDbPolyline
 90
        9
 70
     0
 43
1.0
 10
3450.0
 20
354.9999999999999
 10
3449.960239424454
 20
229.9999999999999
 10
3570.0
 20
230.0
 10
3570.0
 20
239.9999999999999
 10
3525.0
 20
239.9999999999999
 10
3525.0
 20
349.9999999999999
 10
3570.0
 20
349.9999999999999
 10
3570.0
 20
354.9999999999999
 10
3450.0
 20
354.9999999999999
  0
CIRCLE
  5
1E16
330
1F
100
AcDbEntity
  8
floor 0 beacons
100
AcDbCircle
 10
3861.180339887498
 20
361.1803398874989
 30
0.0
 40
11.18033988749895
1001
PE_URL
1000
id=03010030;rssi1m=-67;height=2.5
1002
{
1000

1000

1002
{
1071
        0
1002
}
1002
}
  0
CIRCLE
  5
1E42
330
1F
100
AcDbEntity
  8
floor 0 beacons
100
AcDbCircle
 10
3596.180339887499
 20
506.1803398874989
 30
0.0
 40
11.18033988749895
1001
PE_URL
1000
id=03010033;rssi1m=-67;height=2.5
1002
{
1000

1000

1002
{
1071
        0
1002
}
1002
}
  0
CIRCLE
  5
1E6E
330
1F
100
AcDbEntity
  8
floor 0 beacons
100
AcDbCircle
 10
3595.0
 20
379.9999999999999
 30
0.0
 40
11.18033988749895
1001
PE_URL
1000
id=03010036;rssi1m=-67;height=2.5
1002
{
1000

1000

1002
{
1071
        0
1002
}
1002
}
  0
CIRCLE
  5
1E9A
330
1F
100
AcDbEntity
  8
floor 0 beacons
100
AcDbCircle
 10
3365.0
 20
64.99999999999999
 30
0.0
 40
11.18033988749895
1001
PE_URL
1000
id=03010034;rssi1m=-67;height=2.5
1002
{
1000

1000

1002
{
1071
        0
1002
}
1002
}
  0
CIRCLE
  5
1EC6
330
1F
100
AcDbEntity
  8
floor 0 beacons
100
AcDbCircle
 10
3190.0
 20
64.99999999999999
 30
0.0
 40
11.18033988749895
1001
PE_URL
1000
id=03010037;rssi1m=-67;height=2.5
1002
{
1000

1000

1002
{
1071
        0
1002
}
1002
}
  0
CIRCLE
  5
1EF2
330
1F
100
AcDbEntity
  8
floor 0 beacons
100
AcDbCircle
 10
2755.0
 20
-59.99999999999998
 30
0.0
 40
11.18033988749895
1001
PE_URL
1000
id=0301003d;rssi1m=-67;height=2.5
1002
{
1000

1000

1002
{
1071
        0
1002
}
1002
}
  0
CIRCLE
  5
1F1E
330
1F
100
AcDbEntity
  8
floor 0 beacons
100
AcDbCircle
 10
3110.0
 20
-59.99999999999999
 30
0.0
 40
11.18033988749895
1001
PE_URL
1000
id=03010039;rssi1m=-67;height=2.5
1002
{
1000

1000

1002
{
1071
        0
1002
}
1002
}
  0
CIRCLE
  5
1F4A
330
1F
100
AcDbEntity
  8
floor 0 beacons
100
AcDbCircle
 10
2945.0
 20
69.99999999999999
 30
0.0
 40
11.18033988749895
1001
PE_URL
1000
id=0301003a;rssi1m=-67;height=2.5
1002
{
1000

1000

1002
{
1071
        0
1002
}
1002
}
  0
CIRCLE
  5
1F76
330
1F
100
AcDbEntity
  8
floor 0 beacons
100
AcDbCircle
 10
3350.0
 20
200.0
 30
0.0
 40
11.18033988749895
1001
PE_URL
1000
id=03010035;rssi1m=-67;height=2.5
1002
{
1000

1000

1002
{
1071
        0
1002
}
1002
}
  0
CIRCLE
  5
1FA2
330
1F
100
AcDbEntity
  8
floor 0 beacons
100
AcDbCircle
 10
3076.180339887499
 20
381.1803398874989
 30
0.0
 40
11.18033988749895
1001
PE_URL
1000
id=03010038;rssi1m=-67;height=2.5
1002
{
1000

1000

1002
{
1071
        0
1002
}
1002
}
  0
CIRCLE
  5
1FCE
330
1F
100
AcDbEntity
  8
floor 0 beacons
100
AcDbCircle
 10
2786.180339887499
 20
381.1803398874989
 30
0.0
 40
11.18033988749895
1001
PE_URL
1000
id=0301003c;rssi1m=-67;height=2.5
1002
{
1000

1000

1002
{
1071
        0
1002
}
1002
}
  0
CIRCLE
  5
1FFA
330
1F
100
AcDbEntity
  8
floor 0 beacons
100
AcDbCircle
 10
2945.0
 20
205.0
 30
0.0
 40
11.18033988749895
1001
PE_URL
1000
id=0301003b;rssi1m=-67;height=2.5
1002
{
1000

1000

1002
{
1071
        0
1002
}
1002
}
  0
CIRCLE
  5
2026
330
1F
100
AcDbEntity
  8
floor 0 beacons
100
AcDbCircle
 10
2675.0
 20
64.99999999999999
 30
0.0
 40
11.18033988749895
1001
PE_URL
1000
id=0301003e;rssi1m=-67;height=2.5
1002
{
1000

1000

1002
{
1071
        0
1002
}
1002
}
  0
CIRCLE
  5
2052
330
1F
100
AcDbEntity
  8
floor 0 beacons
100
AcDbCircle
 10
2510.0
 20
64.99999999999999
 30
0.0
 40
11.18033988749895
1001
PE_URL
1000
id=0301003f;rssi1m=-67;height=2.5
1002
{
1000

1000

1002
{
1071
        0
1002
}
1002
}
  0
CIRCLE
  5
207E
330
1F
100
AcDbEntity
  8
floor 0 beacons
100
AcDbCircle
 10
2471.180339887499
 20
376.1803398874989
 30
0.0
 40
11.18033988749895
1001
PE_URL
1000
id=03010041;rssi1m=-67;height=2.5
1002
{
1000

1000

1002
{
1071
        0
1002
}
1002
}
  0
CIRCLE
  5
20AA
330
1F
100
AcDbEntity
  8
floor 0 beacons
100
AcDbCircle
 10
2486.180339887499
 20
201.1803398874989
 30
0.0
 40
11.18033988749895
1001
PE_URL
1000
id=03010040;rssi1m=-67;height=2.5
1002
{
1000

1000

1002
{
1071
        0
1002
}
1002
}
  0
CIRCLE
  5
20E0
330
1F
100
AcDbEntity
  8
floor 0 beacons
100
AcDbCircle
 10
851.1803398874989
 20
196.1803398874989
 30
0.0
 40
11.18033988749895
1001
PE_URL
1000
id=03010048;rssi1m=-67;height=2.5
1002
{
1000

1000

1002
{
1071
        0
1002
}
1002
}
  0
CIRCLE
  5
213A
330
1F
100
AcDbEntity
  8
floor 0 beacons
100
AcDbCircle
 10
614.9999999999999
 20
374.9999999999999
 30
0.0
 40
11.18033988749895
1001
PE_URL
1000
id=0301004a;rssi1m=-67;height=2.5
1002
{
1000

1000

1002
{
1071
        0
1002
}
1002
}
  0
CIRCLE
  5
2167
330
1F
100
AcDbEntity
  8
floor 0 beacons
100
AcDbCircle
 10
3465.0
 20
-125.0
 30
0.0
 40
11.18033988749895
1001
PE_URL
1000
id=03010031;rssi1m=-67;height=2.5
1002
{
1000

1000

1002
{
1071
        0
1002
}
1002
}
  0
CIRCLE
  5
2194
330
1F
100
AcDbEntity
  8
floor 0 beacons
100
AcDbCircle
 10
3635.0
 20
84.99999999999999
 30
0.0
 40
11.18033988749895
1001
PE_URL
1000
id=03010032;rssi1m=-67;height=2.5
1002
{
1000

1000

1002
{
1071
        0
1002
}
1002
}
  0
CIRCLE
  5
21D8
330
1F
100
AcDbEntity
  8
floor 1 beacons
100
AcDbCircle
 10
3826.180339887499
 20
-813.819660112501
 30
0.0
 40
11.18033988749895
1001
PE_URL
1000
id=03010001;rssi1m=-67;height=2.5
1002
{
1000

1000

1002
{
1071
        0
1002
}
1002
}
  0
CIRCLE
  5
2204
330
1F
100
AcDbEntity
  8
floor 1 beacons
100
AcDbCircle
 10
2676.180339887499
 20
-938.819660112501
 30
0.0
 40
11.18033988749895
1001
PE_URL
1000
id=03010025;rssi1m=-67;height=3.0
1002
{
1000

1000

1002
{
1071
        0
1002
}
1002
}
  0
LWPOLYLINE
  5
2211
330
1F
100
AcDbEntity
  8
floor 1 routes
100
AcDbPolyline
 90
        2
 70
     0
 43
1.0
 10
2450.0
 20
-649.9999999999999
 10
2450.0
 20
-529.9999999999999
  0
LWPOLYLINE
  5
2212
330
1F
100
AcDbEntity
  8
floor 1 routes
100
AcDbPolyline
 90
        2
 70
     0
 43
1.0
 10
2565.0
 20
-649.9999999999999
 10
2565.0
 20
-529.9999999999999
  0
LWPOLYLINE
  5
2213
330
1F
100
AcDbEntity
  8
floor 1 routes
100
AcDbPolyline
 90
        2
 70
     0
 43
1.0
 10
2680.0
 20
-649.9999999999999
 10
2680.0
 20
-529.9999999999999
  0
LWPOLYLINE
  5
2214
330
1F
100
AcDbEntity
  8
floor 1 routes
100
AcDbPolyline
 90
        2
 70
     0
 43
1.0
 10
2790.0
 20
-649.9999999999999
 10
2790.0
 20
-529.9999999999999
  0
LWPOLYLINE
  5
2215
330
1F
100
AcDbEntity
  8
floor 1 routes
100
AcDbPolyline
 90
        2
 70
     0
 43
1.0
 10
2910.0
 20
-649.9999999999999
 10
2910.0
 20
-529.9999999999999
  0
LWPOLYLINE
  5
2216
330
1F
100
AcDbEntity
  8
floor 1 routes
100
AcDbPolyline
 90
        2
 70
     0
 43
1.0
 10
3020.0
 20
-649.9999999999999
 10
3020.0
 20
-529.9999999999999
  0
LWPOLYLINE
  5
2217
330
1F
100
AcDbEntity
  8
floor 1 routes
100
AcDbPolyline
 90
        2
 70
     0
 43
1.0
 10
2335.0
 20
-649.9999999999999
 10
2335.0
 20
-529.9999999999999
  0
LWPOLYLINE
  5
2218
330
1F
100
AcDbEntity
  8
floor 1 routes
100
AcDbPolyline
 90
        3
 70
     0
 43
1.0
 10
3395.0
 20
-649.9999999999999
 10
3395.0
 20
-554.9999999999999
 10
3520.0
 20
-554.9999999999999
  0
LWPOLYLINE
  5
2219
330
1F
100
AcDbEntity
  8
floor 1 routes
100
AcDbPolyline
 90
        2
 70
     0
 43
1.0
 10
3475.0
 20
-649.9999999999999
 10
3475.0
 20
-594.9999999999999
  0
LWPOLYLINE
  5
221A
330
1F
100
AcDbEntity
  8
floor 1 routes
100
AcDbPolyline
 90
        2
 70
     0
 43
1.0
 10
3555.0
 20
-814.9999999999999
 10
3555.0
 20
-939.9999999999999
  0
LWPOLYLINE
  5
221B
330
1F
100
AcDbEntity
  8
floor 1 routes
100
AcDbPolyline
 90
        2
 70
     0
 43
1.0
 10
3475.0
 20
-814.9999999999999
 10
3475.0
 20
-939.9999999999999
  0
LWPOLYLINE
  5
221C
330
1F
100
AcDbEntity
  8
floor 1 routes
100
AcDbPolyline
 90
        2
 70
     0
 43
1.0
 10
3645.0
 20
-814.9999999999999
 10
3645.0
 20
-939.9999999999999
  0
LWPOLYLINE
  5
221D
330
1F
100
AcDbEntity
  8
floor 1 routes
100
AcDbPolyline
 90
        2
 70
     0
 43
1.0
 10
3725.0
 20
-814.9999999999999
 10
3725.0
 20
-939.9999999999999
  0
LWPOLYLINE
  5
221E
330
1F
100
AcDbEntity
  8
floor 1 routes
100
AcDbPolyline
 90
        2
 70
     0
 43
1.0
 10
3590.0
 20
-649.9999999999999
 10
3590.0
 20
-529.9999999999999
  0
LWPOLYLINE
  5
221F
330
1F
100
AcDbEntity
  8
floor 1 routes
100
AcDbPolyline
 90
        2
 70
     0
 43
1.0
 10
3705.0
 20
-649.9999999999999
 10
3705.0
 20
-529.9999999999999
  0
LWPOLYLINE
  5
2220
330
1F
100
AcDbEntity
  8
floor 1 routes
100
AcDbPolyline
 90
        2
 70
     0
 43
1.0
 10
2335.0
 20
-814.9999999999999
 10
2335.0
 20
-944.9999999999999
  0
LWPOLYLINE
  5
2221
330
1F
100
AcDbEntity
  8
floor 1 routes
100
AcDbPolyline
 90
        2
 70
     0
 43
1.0
 10
1655.0
 20
-649.9999999999999
 10
1655.0
 20
-534.9999999999999
  0
LWPOLYLINE
  5
2222
330
1F
100
AcDbEntity
  8
floor 1 routes
100
AcDbPolyline
 90
        2
 70
     0
 43
1.0
 10
1770.0
 20
-649.9999999999999
 10
1770.0
 20
-534.9999999999999
  0
LWPOLYLINE
  5
2223
330
1F
100
AcDbEntity
  8
floor 1 routes
100
AcDbPolyline
 90
        2
 70
     0
 43
1.0
 10
1830.0
 20
-649.9999999999999
 10
1830.0
 20
-544.9999999999999
  0
LWPOLYLINE
  5
2224
330
1F
100
AcDbEntity
  8
floor 1 routes
100
AcDbPolyline
 90
        2
 70
     0
 43
1.0
 10
1545.0
 20
-649.9999999999999
 10
1545.0
 20
-534.9999999999999
  0
LWPOLYLINE
  5
2225
330
1F
100
AcDbEntity
  8
floor 1 routes
100
AcDbPolyline
 90
        2
 70
     0
 43
1.0
 10
1430.0
 20
-649.9999999999999
 10
1430.0
 20
-534.9999999999999
  0
LWPOLYLINE
  5
2226
330
1F
100
AcDbEntity
  8
floor 1 routes
100
AcDbPolyline
 90
        2
 70
     0
 43
1.0
 10
1310.0
 20
-649.9999999999999
 10
1310.0
 20
-534.9999999999999
  0
LWPOLYLINE
  5
2227
330
1F
100
AcDbEntity
  8
floor 1 routes
100
AcDbPolyline
 90
        2
 70
     0
 43
1.0
 10
1200.0
 20
-649.9999999999999
 10
1200.0
 20
-539.9999999999999
  0
LWPOLYLINE
  5
2228
330
1F
100
AcDbEntity
  8
floor 1 routes
100
AcDbPolyline
 90
        2
 70
     0
 43
1.0
 10
1085.0
 20
-649.9999999999999
 10
1085.0
 20
-539.9999999999999
  0
LWPOLYLINE
  5
2229
330
1F
100
AcDbEntity
  8
floor 1 routes
100
AcDbPolyline
 90
        2
 70
     0
 43
1.0
 10
969.9999999999998
 20
-649.9999999999999
 10
969.9999999999998
 20
-539.9999999999999
  0
LWPOLYLINE
  5
222A
330
1F
100
AcDbEntity
  8
floor 1 routes
100
AcDbPolyline
 90
        2
 70
     0
 43
1.0
 10
1015.0
 20
-814.9999999999999
 10
1015.0
 20
-649.9999999999999
  0
LWPOLYLINE
  5
222B
330
1F
100
AcDbEntity
  8
floor 1 routes
100
AcDbPolyline
 90
        2
 70
     0
 43
1.0
 10
814.9999999999999
 20
-814.9999999999999
 10
814.9999999999999
 20
-1185.0
  0
LWPOLYLINE
  5
222C
330
1F
100
AcDbEntity
  8
floor 1 routes
100
AcDbPolyline
 90
        2
 70
     0
 43
1.0
 10
919.9999999999999
 20
-814.9999999999999
 10
919.9999999999999
 20
-1185.0
  0
LWPOLYLINE
  5
222D
330
1F
100
AcDbEntity
  8
floor 1 routes
100
AcDbPolyline
 90
        2
 70
     0
 43
1.0
 10
1510.0
 20
-814.9999999999999
 10
1510.0
 20
-1175.0
  0
LWPOLYLINE
  5
222E
330
1F
100
AcDbEntity
  8
floor 1 routes
100
AcDbPolyline
 90
        2
 70
     0
 43
1.0
 10
1595.0
 20
-814.9999999999999
 10
1595.0
 20
-1175.0
  0
LWPOLYLINE
  5
222F
330
1F
100
AcDbEntity
  8
floor 1 routes
100
AcDbPolyline
 90
        2
 70
     0
 43
1.0
 10
629.9999999999999
 20
-649.9999999999999
 10
544.9999999999999
 20
-649.9999999999999
  0
LWPOLYLINE
  5
2231
330
1F
100
AcDbEntity
  8
floor 1 routes
100
AcDbPolyline
 90
        2
 70
     0
 43
1.0
 10
1055.0
 20
-814.9999999999999
 10
1055.0
 20
-949.9999999999999
  0
LWPOLYLINE
  5
2232
330
1F
100
AcDbEntity
  8
floor 1 routes
100
AcDbPolyline
 90
        2
 70
     0
 43
1.0
 10
1140.0
 20
-814.9999999999999
 10
1140.0
 20
-949.9999999999999
  0
LWPOLYLINE
  5
2233
330
1F
100
AcDbEntity
  8
floor 1 routes
100
AcDbPolyline
 90
        2
 70
     0
 43
1.0
 10
1280.0
 20
-814.9999999999999
 10
1280.0
 20
-949.9999999999999
  0
LWPOLYLINE
  5
2234
330
1F
100
AcDbEntity
  8
floor 1 routes
100
AcDbPolyline
 90
        2
 70
     0
 43
1.0
 10
1365.0
 20
-814.9999999999999
 10
1365.0
 20
-949.9999999999999
  0
CIRCLE
  5
2265
330
1F
100
AcDbEntity
  8
floor 0 routes
100
AcDbCircle
 10
3879.999999999999
 20
429.9999999999999
 30
0.0
 40
18.02775637731995
1001
PE_URL
1000
keywords=elevator;id=4003
  0
CIRCLE
  5
2266
330
1F
100
AcDbEntity
  8
floor 0 routes
100
AcDbCircle
 10
3954.999999999999
 20
504.9999999999999
 30
0.0
 40
18.02775637731995
1001
PE_URL
1000
keywords=stairs;id=4001
  0
LWPOLYLINE
  5
2269
330
1F
100
AcDbEntity
  8
floor 0 routes
100
AcDbPolyline
 90
        3
 70
     0
 43
1.0
 10
3954.999999999999
 20
504.9999999999999
 10
3954.999999999999
 20
379.9999999999999
 10
1840.0
 20
379.9999999999999
  0
LWPOLYLINE
  5
226B
330
1F
100
AcDbEntity
  8
floor 0 routes
100
AcDbPolyline
 90
        2
 70
     0
 43
1.0
 10
3595.0
 20
379.9999999999999
 10
3595.0
 20
529.9999999999999
  0
LWPOLYLINE
  5
226C
330
1F
100
AcDbEntity
  8
floor 0 routes
100
AcDbPolyline
 90
        3
 70
     0
 43
1.0
 10
3595.0
 20
379.9999999999999
 10
3595.0
 20
190.0
 10
629.9999999999999
 20
190.0
  0
LWPOLYLINE
  5
226D
330
1F
100
AcDbEntity
  8
floor 0 routes
100
AcDbPolyline
 90
        2
 70
     0
 43
1.0
 10
629.9999999999999
 20
190.0
 10
629.9999999999999
 20
374.9999999999999
  0
LWPOLYLINE
  5
226E
330
1F
100
AcDbEntity
  8
floor 0 routes
100
AcDbPolyline
 90
        2
 70
     0
 43
1.0
 10
2035.0
 20
379.9999999999999
 10
2035.0
 20
190.0
  0
LWPOLYLINE
  5
226F
330
1F
100
AcDbEntity
  8
floor 0 routes
100
AcDbPolyline
 90
        2
 70
     0
 43
1.0
 10
2275.0
 20
379.9999999999999
 10
2275.0
 20
190.0
  0
LWPOLYLINE
  5
2270
330
1F
100
AcDbEntity
  8
floor 0 routes
100
AcDbPolyline
 90
        2
 70
     0
 43
1.0
 10
2525.0
 20
379.9999999999999
 10
2525.0
 20
190.0
  0
LWPOLYLINE
  5
2273
330
1F
100
AcDbEntity
  8
floor 0 routes
100
AcDbPolyline
 90
        3
 70
     0
 43
1.0
 10
3095.0
 20
379.9999999999999
 10
2945.0
 20
190.0
 10
2780.0
 20
379.9999999999999
  0
LWPOLYLINE
  5
2274
330
1F
100
AcDbEntity
  8
floor 0 routes
100
AcDbPolyline
 90
        2
 70
     0
 43
1.0
 10
2945.0
 20
190.0
 10
2945.0
 20
379.9999999999999
  0
LWPOLYLINE
  5
2275
330
1F
100
AcDbEntity
  8
floor 0 routes
100
AcDbPolyline
 90
        2
 70
     0
 43
1.0
 10
2945.0
 20
190.0
 10
2945.0
 20
-100.0
  0
LWPOLYLINE
  5
2276
330
1F
100
AcDbEntity
  8
floor 0 routes
100
AcDbPolyline
 90
        3
 70
     0
 43
1.0
 10
3595.0
 20
190.0
 10
3854.999999999999
 20
190.0
 10
3854.999999999999
 20
110.0
  0
LWPOLYLINE
  5
2277
330
1F
100
AcDbEntity
  8
floor 0 routes
100
AcDbPolyline
 90
        3
 70
     0
 43
1.0
 10
3879.999999999999
 20
379.9999999999999
 10
3879.999999999999
 20
190.0
 10
3854.999999999999
 20
190.0
  0
LWPOLYLINE
  5
2279
330
1F
100
AcDbEntity
  8
floor 0 routes
100
AcDbPolyline
 90
        2
 70
     0
 43
1.0
 10
3879.999999999999
 20
379.9999999999999
 10
3879.999999999999
 20
429.9999999999999
  0
LWPOLYLINE
  5
227B
330
1F
100
AcDbEntity
  8
floor 0 walls
100
AcDbPolyline
 90
        2
 70
     0
 43
1.0
 10
3939.999999999999
 20
489.9999999999999
 10
3939.999999999999
 20
389.9999999999999
1001
PE_URL
1000
material=air
  0
LWPOLYLINE
  5
227F
330
1F
100
AcDbEntity
  8
floor 0 routes
100
AcDbPolyline
 90
        3
 70
     0
 43
1.0
 10
3919.999999999999
 20
379.9999999999999
 10
3919.999999999999
 20
509.9999999999999
 10
3889.999999999999
 20
509.9999999999999
  0
LWPOLYLINE
  5
2280
330
1F
100
AcDbEntity
  8
floor 0 routes
100
AcDbPolyline
 90
        2
 70
     0
 43
1.0
 10
3595.0
 20
190.0
 10
3595.0
 20
-125.0
  0
LWPOLYLINE
  5
2281
330
1F
100
AcDbEntity
  8
floor 0 routes
100
AcDbPolyline
 90
        2
 70
     0
 43
1.0
 10
3760.0
 20
190.0
 10
3760.0
 20
-120.0
  0
LWPOLYLINE
  5
2284
330
1F
100
AcDbEntity
  8
floor 0 walls
100
AcDbPolyline
 90
        2
 70
     0
 43
1.0
 10
3225.0
 20
165.0
 10
3015.0
 20
165.0
  0
LWPOLYLINE
  5
2288
330
1F
100
AcDbEntity
  8
floor 0 routes
100
AcDbPolyline
 90
        2
 70
     0
 43
1.0
 10
3760.0
 20
190.0
 10
3879.999999999999
 20
379.9999999999999
  0
CIRCLE
  5
22B3
330
1F
100
AcDbEntity
  8
floor 0 routes
100
AcDbCircle
 10
3595.0
 20
529.9999999999999
 30
0.0
 40
18.02775637731995
1001
PE_URL
1000
keywords=Entrance - parking lot
  0
CIRCLE
  5
22DE
330
1F
100
AcDbEntity
  8
floor 0 routes
100
AcDbCircle
 10
3854.999999999999
 20
110.0
 30
0.0
 40
18.02775637731995
1001
PE_URL
1000
keywords=Main entrance
  0
CIRCLE
  5
2309
330
1F
100
AcDbEntity
  8
floor 0 routes
100
AcDbCircle
 10
3703.027756377319
 20
190.0
 30
0.0
 40
18.02775637731995
1001
PE_URL
1000
keywords=Cafeteria
  0
CIRCLE
  5
2334
330
1F
100
AcDbEntity
  8
floor 0 routes
100
AcDbCircle
 10
3670.0
 20
379.9999999999999
 30
0.0
 40
18.02775637731995
1001
PE_URL
1000
keywords=info,reception
  0
CIRCLE
  5
2363
330
1F
100
AcDbEntity
  8
floor 0 routes
100
AcDbCircle
 10
3395.0
 20
249.9999999999999
 30
0.0
 40
18.02775637731995
1001
PE_URL
1000
keywords=toilet
  0
CIRCLE
  5
2364
330
1F
100
AcDbEntity
  8
floor 0 routes
100
AcDbCircle
 10
3305.0
 20
254.9999999999999
 30
0.0
 40
18.02775637731995
1001
PE_URL
1000
keywords=toilet
  0
CIRCLE
  5
2365
330
1F
100
AcDbEntity
  8
floor 0 routes
100
AcDbCircle
 10
3305.0
 20
329.9999999999999
 30
0.0
 40
18.02775637731995
1001
PE_URL
1000
keywords=toilet
  0
CIRCLE
  5
2366
330
1F
100
AcDbEntity
  8
floor 0 routes
100
AcDbCircle
 10
3395.0
 20
304.9999999999999
 30
0.0
 40
18.02775637731995
1001
PE_URL
1000
keywords=toilet
  0
LWPOLYLINE
  5
2367
330
1F
100
AcDbEntity
  8
floor 0 walls
100
AcDbPolyline
 90
        3
 70
     0
 43
1.0
 10
3250.0
 20
230.0
 10
3325.0
 20
230.0
 10
3325.0
 20
244.9999999999999
  0
LWPOLYLINE
  5
2368
330
1F
100
AcDbEntity
  8
floor 0 walls
100
AcDbPolyline
 90
        2
 70
     0
 43
1.0
 10
3325.0
 20
294.9999999999999
 10
3250.0
 20
294.9999999999999
  0
LWPOLYLINE
  5
2369
330
1F
100
AcDbEntity
  8
floor 0 walls
100
AcDbPolyline
 90
        2
 70
     0
 43
1.0
 10
3325.0
 20
294.9999999999999
 10
3325.0
 20
264.9999999999999
  0
LWPOLYLINE
  5
236A
330
1F
100
AcDbEntity
  8
floor 0 routes
100
AcDbPolyline
 90
        2
 70
     0
 43
1.0
 10
3350.0
 20
190.0
 10
3350.0
 20
379.9999999999999
  0
LWPOLYLINE
  5
236B
330
1F
100
AcDbEntity
  8
floor 0 routes
100
AcDbPolyline
 90
        2
 70
     0
 43
1.0
 10
3350.0
 20
329.9999999999999
 10
3305.0
 20
329.9999999999999
  0
LWPOLYLINE
  5
236C
330
1F
100
AcDbEntity
  8
floor 0 routes
100
AcDbPolyline
 90
        2
 70
     0
 43
1.0
 10
3350.0
 20
254.9999999999999
 10
3305.0
 20
254.9999999999999
  0
LWPOLYLINE
  5
236D
330
1F
100
AcDbEntity
  8
floor 0 routes
100
AcDbPolyline
 90
        2
 70
     0
 43
1.0
 10
3350.0
 20
249.9999999999999
 10
3395.0
 20
249.9999999999999
  0
LWPOLYLINE
  5
236E
330
1F
100
AcDbEntity
  8
floor 0 routes
100
AcDbPolyline
 90
        2
 70
     0
 43
1.0
 10
3350.0
 20
304.9999999999999
 10
3395.0
 20
304.9999999999999
  0
CIRCLE
  5
239D
330
1F
100
AcDbEntity
  8
floor 0 beacons
100
AcDbCircle
 10
3851.180339887498
 20
211.1803398874989
 30
0.0
 40
11.18033988749895
1001
PE_URL
1000
id=0301002f;rssi1m=-67;height=2.5
  0
LWPOLYLINE
  5
23A4
330
1F
100
AcDbEntity
  8
floor 0 walls
100
AcDbPolyline
 90
        3
 70
     0
 43
1.0
 10
3110.0
 20
354.9999999999999
 10
3110.0
 20
230.0
 10
3250.0
 20
230.0
  0
LWPOLYLINE
  5
23A5
330
1F
100
AcDbEntity
  8
floor 0 keepouts
100
AcDbPolyline
 90
        7
 70
     0
 43
1.0
 10
2065.0
 20
165.0
 10
2065.0
 20
-165.0
 10
2425.0
 20
-165.0
 10
2425.0
 20
59.99999999999999
 10
2430.0
 20
59.99999999999999
 10
2430.0
 20
165.0
 10
2065.0
 20
165.0
  0
LWPOLYLINE
  5
23A7
330
1F
100
AcDbEntity
  8
floor 3 keepouts
100
AcDbPolyline
 90
       19
 70
     0
 43
1.0
 10
1865.0
 20
-3015.0
 10
1865.0
 20
-3320.0
 10
2030.0
 20
-3320.0
 10
2030.0
 20
-3555.0
 10
2415.0
 20
-3555.0
 10
2415.0
 20
-3320.0
 10
3465.0
 20
-3320.0
 10
3465.0
 20
-3555.0
 10
3849.999999999999
 20
-3555.0
 10
3849.999999999999
 20
-3270.0
 10
4014.999999999999
 20
-3270.0
 10
4014.999999999999
 20
-2830.0
 10
3934.999999999999
 20
-2830.0
 10
3934.999999999999
 20
-2880.0
 10
3849.999999999999
 20
-2880.0
 10
3849.999999999999
 20
-2830.0
 10
1955.0
 20
-2830.0
 10
1955.0
 20
-3015.0
 10
1865.0
 20
-3015.0
  0
LWPOLYLINE
  5
23A8
330
1F
100
AcDbEntity
  8
floor 3 walls
100
AcDbPolyline
 90
        2
 70
     0
 43
1.0
 10
1090.0
 20
-2830.0
 10
1090.0
 20
-2865.0
  0
LWPOLYLINE
  5
23A9
330
1F
100
AcDbEntity
  8
floor 3 walls
100
AcDbPolyline
 90
        2
 70
     0
 43
1.0
 10
1315.0
 20
-3315.0
 10
1455.0
 20
-3315.0
  0
LWPOLYLINE
  5
23AB
330
1F
100
AcDbEntity
  8
floor 3 walls
100
AcDbPolyline
 90
        2
 70
     0
 43
1.0
 10
1565.0
 20
-3315.0
 10
1700.0
 20
-3315.0
  0
LWPOLYLINE
  5
23AC
330
1F
100
AcDbEntity
  8
floor 3 keepouts
100
AcDbPolyline
 90
        5
 70
     0
 43
1.0
 10
1700.0
 20
-3315.0
 10
1315.0
 20
-3315.0
 10
1315.0
 20
-3555.0
 10
1700.0
 20
-3555.0
 10
1700.0
 20
-3315.0
  0
LWPOLYLINE
  5
23AD
330
1F
100
AcDbEntity
  8
floor 3 walls
100
AcDbPolyline
 90
        2
 70
     0
 43
1.0
 10
1540.0
 20
-3135.0
 10
1710.0
 20
-3135.0
  0
CIRCLE
  5
23D9
330
1F
100
AcDbEntity
  8
floor 3 beacons
100
AcDbCircle
 10
639.9999999999999
 20
-3550.0
 30
0.0
 40
11.18033988749895
1001
PE_URL
1000
id=03010060;rssi1m=-67;height=2.5
  0
CIRCLE
  5
2408
330
1F
100
AcDbEntity
  8
floor 3 beacons
100
AcDbCircle
 10
941.1803398874988
 20
-3548.819660112501
 30
0.0
 40
11.18033988749895
1001
PE_URL
1000
id=03010062;rssi1m=-67;height=2.5
  0
CIRCLE
  5
2434
330
1F
100
AcDbEntity
  8
floor 3 beacons
100
AcDbCircle
 10
796.1803398874988
 20
-3293.819660112501
 30
0.0
 40
11.18033988749895
1001
PE_URL
1000
id=03010057;rssi1m=-67;height=2.5
  0
CIRCLE
  5
2460
330
1F
100
AcDbEntity
  8
floor 3 beacons
100
AcDbCircle
 10
976.1803398874987
 20
-3168.819660112501
 30
0.0
 40
11.18033988749895
1001
PE_URL
1000
id=03010065;rssi1m=-67;height=2.5
  0
CIRCLE
  5
248C
330
1F
100
AcDbEntity
  8
floor 3 beacons
100
AcDbCircle
 10
831.1803398874988
 20
-3073.819660112501
 30
0.0
 40
11.18033988749895
1001
PE_URL
1000
id=03010056;rssi1m=-67;height=2.5
  0
CIRCLE
  5
24B8
330
1F
100
AcDbEntity
  8
floor 3 beacons
100
AcDbCircle
 10
656.1803398874988
 20
-3068.819660112501
 30
0.0
 40
11.18033988749895
1001
PE_URL
1000
id=03010058;rssi1m=-67;height=2.5
  0
CIRCLE
  5
24E4
330
1F
100
AcDbEntity
  8
floor 3 beacons
100
AcDbCircle
 10
1241.180339887499
 20
-3158.819660112501
 30
0.0
 40
11.18033988749895
1001
PE_URL
1000
id=0301005d;rssi1m=-67;height=2.5
  0
CIRCLE
  5
2510
330
1F
100
AcDbEntity
  8
floor 3 beacons
100
AcDbCircle
 10
1356.180339887499
 20
-2993.819660112501
 30
0.0
 40
11.18033988749895
1001
PE_URL
1000
id=0301005c;rssi1m=-67;height=2.5
  0
CIRCLE
  5
253C
330
1F
100
AcDbEntity
  8
floor 3 beacons
100
AcDbCircle
 10
1551.180339887499
 20
-2993.819660112501
 30
0.0
 40
11.18033988749895
1001
PE_URL
1000
id=0301005a;rssi1m=-67;height=2.5
  0
CIRCLE
  5
2568
330
1F
100
AcDbEntity
  8
floor 3 beacons
100
AcDbCircle
 10
1746.180339887499
 20
-2983.819660112501
 30
0.0
 40
11.18033988749895
1001
PE_URL
1000
id=0301005b;rssi1m=-67;height=2.5
  0
CIRCLE
  5
2594
330
1F
100
AcDbEntity
  8
floor 3 beacons
100
AcDbCircle
 10
1681.180339887499
 20
-2838.819660112501
 30
0.0
 40
11.18033988749895
1001
PE_URL
1000
id=03010051;rssi1m=-67;height=2.5
  0
CIRCLE
  5
25C0
330
1F
100
AcDbEntity
  8
floor 3 beacons
100
AcDbCircle
 10
1461.180339887499
 20
-2838.819660112501
 30
0.0
 40
11.18033988749895
1001
PE_URL
1000
id=03010054;rssi1m=-67;height=2.5
  0
CIRCLE
  5
25EC
330
1F
100
AcDbEntity
  8
floor 3 beacons
100
AcDbCircle
 10
1466.180339887499
 20
-3068.819660112501
 30
0.0
 40
11.18033988749895
1001
PE_URL
1000
id=03010054;rssi1m=-67;height=2.5
  0
CIRCLE
  5
2618
330
1F
100
AcDbEntity
  8
floor 3 beacons
100
AcDbCircle
 10
1201.180339887499
 20
-2893.819660112501
 30
0.0
 40
11.18033988749895
1001
PE_URL
1000
id=03010055;rssi1m=-67;height=2.5
  0
CIRCLE
  5
2644
330
1F
100
AcDbEntity
  8
floor 3 beacons
100
AcDbCircle
 10
1016.180339887499
 20
-2988.819660112501
 30
0.0
 40
11.18033988749895
1001
PE_URL
1000
id=03010061;rssi1m=-67;height=2.5
  0
CIRCLE
  5
2670
330
1F
100
AcDbEntity
  8
floor 3 beacons
100
AcDbCircle
 10
866.1803398874988
 20
-2838.819660112501
 30
0.0
 40
11.18033988749895
1001
PE_URL
1000
id=03010053;rssi1m=-67;height=2.5
  0
CIRCLE
  5
269C
330
1F
100
AcDbEntity
  8
floor 3 beacons
100
AcDbCircle
 10
681.1803398874988
 20
-2838.819660112501
 30
0.0
 40
11.18033988749895
1001
PE_URL
1000
id=03010050;rssi1m=-67;height=2.5
  0
CIRCLE
  5
26C8
330
1F
100
AcDbEntity
  8
floor 3 beacons
100
AcDbCircle
 10
546.1803398874988
 20
-2988.819660112501
 30
0.0
 40
11.18033988749895
1001
PE_URL
1000
id=03010059;rssi1m=-67;height=2.5
  0
CIRCLE
  5
26F4
330
1F
100
AcDbEntity
  8
floor 3 beacons
100
AcDbCircle
 10
1416.180339887499
 20
-3228.819660112501
 30
0.0
 40
11.18033988749895
1001
PE_URL
1000
id=0301005e;rssi1m=-67;height=2.5
  0
CIRCLE
  5
2720
330
1F
100
AcDbEntity
  8
floor 3 beacons
100
AcDbCircle
 10
1671.180339887499
 20
-3163.819660112501
 30
0.0
 40
11.18033988749895
1001
PE_URL
1000
id=0301005f;rssi1m=-67;height=2.5
  0
CIRCLE
  5
274C
330
1F
100
AcDbEntity
  8
floor 1 routes
100
AcDbCircle
 10
1945.0
 20
-614.9999999999999
 30
0.0
 40
18.02775637731995
1001
PE_URL
1000
keywords=elevator;id=4004
  0
CIRCLE
  5
2778
330
1F
100
AcDbEntity
  8
floor 1 routes
100
AcDbCircle
 10
1920.0
 20
-614.9999999999999
 30
0.0
 40
18.02775637731995
1001
PE_URL
1000
keywords=elevator;id=4005
  0
LWPOLYLINE
  5
2779
330
1F
100
AcDbEntity
  8
floor 1 routes
100
AcDbPolyline
 90
        2
 70
     0
 43
1.0
 10
1945.0
 20
-614.9999999999999
 10
1945.0
 20
-649.9999999999999
  0
LWPOLYLINE
  5
277A
330
1F
100
AcDbEntity
  8
floor 1 routes
100
AcDbPolyline
 90
        3
 70
     0
 43
1.0
 10
1920.0
 20
-614.9999999999999
 10
1920.0
 20
-649.9999999999999
 10
1830.0
 20
-649.9999999999999
  0
CIRCLE
  5
27A6
330
1F
100
AcDbEntity
  8
floor 3 routes
100
AcDbCircle
 10
1925.0
 20
-2925.0
 30
0.0
 40
18.02775637731995
1001
PE_URL
1000
keywords=elevator;id=4004
  0
CIRCLE
  5
27A7
330
1F
100
AcDbEntity
  8
floor 3 routes
100
AcDbCircle
 10
1895.0
 20
-2925.0
 30
0.0
 40
18.02775637731995
1001
PE_URL
1000
keywords=elevator;id=4005
  0
LWPOLYLINE
  5
27AB
330
1F
100
AcDbEntity
  8
floor 3 routes
100
AcDbPolyline
 90
        2
 70
     0
 43
1.0
 10
1750.0
 20
-2985.0
 10
1925.0
 20
-2985.0
  0
LWPOLYLINE
  5
27AC
330
1F
100
AcDbEntity
  8
floor 3 routes
100
AcDbPolyline
 90
        2
 70
     0
 43
1.0
 10
1895.0
 20
-2985.0
 10
1895.0
 20
-2925.0
  0
LWPOLYLINE
  5
27AD
330
1F
100
AcDbEntity
  8
floor 3 routes
100
AcDbPolyline
 90
        2
 70
     0
 43
1.0
 10
1925.0
 20
-2985.0
 10
1925.0
 20
-2925.0
  0
CIRCLE
  5
27D8
330
1F
100
AcDbEntity
  8
floor 3 routes
100
AcDbCircle
 10
1750.0
 20
-2985.0
 30
0.0
 40
18.02775637731995
1001
PE_URL
1000
keywords=AppCampus
  0
CIRCLE
  5
2803
330
1F
100
AcDbEntity
  8
floor 3 routes
100
AcDbCircle
 10
539.9999999999999
 20
-2990.0
 30
0.0
 40
18.02775637731995
1001
PE_URL
1000
keywords=AppCampus
  0
CIRCLE
  5
282F
330
1F
100
AcDbEntity
  8
floor 1 routes
100
AcDbCircle
 10
639.9999999999999
 20
-609.9999999999999
 30
0.0
 40
18.02775637731995
1001
PE_URL
1000
keywords=elevator;id=4006
  0
LWPOLYLINE
  5
2830
330
1F
100
AcDbEntity
  8
floor 1 routes
100
AcDbPolyline
 90
        2
 70
     0
 43
1.0
 10
639.9999999999999
 20
-609.9999999999999
 10
639.9999999999999
 20
-649.9999999999999
  0
CIRCLE
  5
285C
330
1F
100
AcDbEntity
  8
floor 3 routes
100
AcDbCircle
 10
539.9999999999999
 20
-2930.0
 30
0.0
 40
18.02775637731995
1001
PE_URL
1000
keywords=elevator;id=4006
  0
LWPOLYLINE
  5
285D
330
1F
100
AcDbEntity
  8
floor 3 routes
100
AcDbPolyline
 90
        2
 70
     0
 43
1.0
 10
539.9999999999999
 20
-2990.0
 10
539.9999999999999
 20
-2930.0
  0
LWPOLYLINE
  5
285E
330
1F
100
AcDbEntity
  8
floor 1 routes
100
AcDbPolyline
 90
        2
 70
     0
 43
1.0
 10
859.9999999999999
 20
-649.9999999999999
 10
859.9999999999999
 20
-539.9999999999999
  0
LWPOLYLINE
  5
285F
330
1F
100
AcDbEntity
  8
floor 1 routes
100
AcDbPolyline
 90
        2
 70
     0
 43
1.0
 10
739.9999999999999
 20
-649.9999999999999
 10
739.9999999999999
 20
-539.9999999999999
  0
LWPOLYLINE
  5
2861
330
1F
100
AcDbEntity
  8
floor 1 routes
100
AcDbPolyline
 90
        2
 70
     0
 43
1.0
 10
1450.0
 20
-649.9999999999999
 10
1450.0
 20
-779.9999999999999
  0
LWPOLYLINE
  5
2862
330
1F
100
AcDbEntity
  8
floor 1 routes
100
AcDbPolyline
 90
        2
 70
     0
 43
1.0
 10
1315.0
 20
-814.9999999999999
 10
1315.0
 20
-694.9999999999999
  0
LWPOLYLINE
  5
2863
330
1F
100
AcDbEntity
  8
floor 1 routes
100
AcDbPolyline
 90
        2
 70
     0
 43
1.0
 10
1085.0
 20
-649.9999999999999
 10
1085.0
 20
-764.9999999999999
  0
LWPOLYLINE
  5
2864
330
1F
100
AcDbEntity
  8
floor 1 routes
100
AcDbPolyline
 90
        2
 70
     0
 43
1.0
 10
3350.0
 20
-814.9999999999999
 10
3350.0
 20
-704.9999999999999
  0
CIRCLE
  5
2890
330
1F
100
AcDbEntity
  8
floor 0 beacons
100
AcDbCircle
 10
3801.180339887499
 20
-123.819660112501
 30
0.0
 40
11.18033988749895
1001
PE_URL
1000
id=0301004f;rssi1m=-67;height=2.5
  0
CIRCLE
  5
28C0
330
1F
100
AcDbEntity
  8
floor 0 routes
100
AcDbCircle
 10
1945.0
 20
429.9999999999999
 30
0.0
 40
18.02775637731995
1001
PE_URL
1000
keywords=elevator;id=4004
  0
CIRCLE
  5
28C1
330
1F
100
AcDbEntity
  8
floor 0 routes
100
AcDbCircle
 10
1920.0
 20
429.9999999999999
 30
0.0
 40
18.02775637731995
1001
PE_URL
1000
keywords=elevator;id=4005
  0
LWPOLYLINE
  5
28C3
330
1F
100
AcDbEntity
  8
floor 0 routes
100
AcDbPolyline
 90
        2
 70
     0
 43
1.0
 10
1945.0
 20
379.9999999999999
 10
1945.0
 20
429.9999999999999
  0
LWPOLYLINE
  5
28C4
330
1F
100
AcDbEntity
  8
floor 0 routes
100
AcDbPolyline
 90
        2
 70
     0
 43
1.0
 10
1920.0
 20
379.9999999999999
 10
1920.0
 20
429.9999999999999
  0
ENDSEC
  0
SECTION
  2
OBJECTS
  0
DICTIONARY
  5
C
330
0
100
AcDbDictionary
281
     1
  3
ACAD_DETAILVIEWSTYLE
350
B5
  3
ACAD_GROUP
350
D
  3
ACAD_IMAGE_DICT
350
BB
  3
ACAD_IMAGE_VARS
350
6A
  3
ACAD_LAYOUT
350
1A
  3
ACAD_MATERIAL
350
72
  3
ACAD_MLEADERSTYLE
350
3F
  3
ACAD_MLINESTYLE
350
17
  3
ACAD_PLOTSETTINGS
350
19
  3
ACAD_PLOTSTYLENAME
350
E
  3
ACAD_SCALELIST
350
40
  3
ACAD_SECTIONVIEWSTYLE
350
B6
  3
ACAD_TABLESTYLE
350
3B
  3
ACAD_VISUALSTYLE
350
2A
  3
ACDB_RECOMPOSE_DATA
350
28C7
  3
AcDbVariableDictionary
350
3D
  3
AcStStandard
350
D3
  3
APPDATA
350
71
  0
SUN
  5
80
330
29
100
AcDbSun
 90
        1
290
     0
 63
     7
421
 16777215
 40
1.0
291
     1
 91
  2455826
 92
 54000000
292
     0
 70
     2
 71
   256
280
     1
  0
DICTIONARY
  5
B8
330
2
100
AcDbDictionary
280
     1
281
     1
  3
ACAD_LAYERSTATES
360
BF
  3
ACLYDICTIONARY
360
27AA
  0
DICTIONARY
  5
C82
330
1F
100
AcDbDictionary
280
     1
281
     1
  3
ACAD_SORTENTS
360
C83
  0
IMAGEDEF_REACTOR
  5
BE
330
BD
100
AcDbRasterImageDefReactor
 90
        2
330
BD
  0
IMAGEDEF_REACTOR
  5
C7E
330
C7D
100
AcDbRasterImageDefReactor
 90
        2
330
C7D
  0
IMAGEDEF_REACTOR
  5
C92
330
C91
100
AcDbRasterImageDefReactor
 90
        2
330
C91
  0
IMAGEDEF_REACTOR
  5
C96
330
C95
100
AcDbRasterImageDefReactor
 90
        2
330
C95
  0
DICTIONARY
  5
B5
102
{ACAD_REACTORS
330
C
102
}
330
C
100
AcDbDictionary
281
     1
  0
DICTIONARY
  5
D
102
{ACAD_REACTORS
330
C
102
}
330
C
100
AcDbDictionary
281
     1
  0
DICTIONARY
  5
BB
102
{ACAD_REACTORS
330
C
102
}
330
C
100
AcDbDictionary
281
     1
  3
floor 0 office
350
BC
  3
floor 1 office
350
C7C
  3
floor 2 office
350
C90
  3
floor 3 office
350
C94
  0
RASTERVARIABLES
  5
6A
102
{ACAD_REACTORS
330
C
102
}
330
C
100
AcDbRasterVariables
 90
        0
 70
     1
 71
     1
 72
     1
  0
DICTIONARY
  5
1A
102
{ACAD_REACTORS
330
C
102
}
330
C
100
AcDbDictionary
281
     1
  3
Model
350
22
  3
Sheet1
350
1E
  3
Sheet2
350
26
  0
DICTIONARY
  5
72
102
{ACAD_REACTORS
330
C
102
}
330
C
100
AcDbDictionary
281
     1
  3
ByBlock
350
74
  3
ByLayer
350
73
  3
Global
350
75
  0
DICTIONARY
  5
3F
102
{ACAD_REACTORS
330
C
102
}
330
C
100
AcDbDictionary
281
     1
  3
Standard
350
B7
  0
DICTIONARY
  5
17
102
{ACAD_REACTORS
330
C
102
}
330
C
100
AcDbDictionary
281
     1
  3
Standard
350
18
  0
DICTIONARY
  5
19
102
{ACAD_REACTORS
330
C
102
}
330
C
100
AcDbDictionary
281
     1
  0
ACDBDICTIONARYWDFLT
  5
E
102
{ACAD_REACTORS
330
C
102
}
330
C
100
AcDbDictionary
281
     1
  3
Normal
350
F
100
AcDbDictionaryWithDefault
340
F
  0
DICTIONARY
  5
40
102
{ACAD_REACTORS
330
C
102
}
330
C
100
AcDbDictionary
281
     1
  3
A0
350
41
  3
A1
350
42
  3
A2
350
43
  3
A3
350
44
  3
A4
350
45
  3
A5
350
46
  3
A6
350
47
  3
A7
350
48
  3
A8
350
49
  3
A9
350
4A
  3
B0
350
4B
  3
B1
350
4C
  3
B2
350
4D
  3
B3
350
4E
  3
B4
350
4F
  3
B5
350
50
  3
B6
350
51
  3
B7
350
52
  3
B8
350
53
  3
B9
350
54
  3
C0
350
55
  3
C1
350
56
  3
C2
350
57
  3
C3
350
58
  3
C4
350
59
  3
C5
350
5A
  3
C6
350
5B
  3
C7
350
5C
  3
C8
350
5D
  3
C9
350
5E
  3
D0
350
5F
  3
D1
350
60
  3
D2
350
61
  0
DICTIONARY
  5
B6
102
{ACAD_REACTORS
330
C
102
}
330
C
100
AcDbDictionary
281
     1
  0
DICTIONARY
  5
3B
102
{ACAD_REACTORS
330
C
102
}
330
C
100
AcDbDictionary
281
     1
  3
Standard
350
3C
  0
DICTIONARY
  5
2A
102
{ACAD_REACTORS
330
C
102
}
330
C
100
AcDbDictionary
281
     1
  3
2dWireframe
350
2F
  3
3D Hidden
350
31
  3
3dWireframe
350
30
  3
Basic
350
32
  3
Brighten
350
36
  3
ColorChange
350
3A
  3
Conceptual
350
34
  3
Dim
350
35
  3
EdgeColorOff
350
7A
  3
Facepattern
350
39
  3
Flat
350
2B
  3
FlatWithEdges
350
2C
  3
Gouraud
350
2D
  3
GouraudWithEdges
350
2E
  3
Hidden
350
77
  3
JitterOff
350
78
  3
Linepattern
350
38
  3
OverhangOff
350
79
  3
Realistic
350
33
  3
Shaded
350
7F
  3
Shaded with edges
350
7E
  3
Shades of Gray
350
7B
  3
Sketchy
350
7C
  3
Thicken
350
37
  3
Wireframe
350
76
  3
X-Ray
350
7D
  0
XRECORD
  5
28C7
102
{ACAD_REACTORS
330
C
102
}
330
C
100
AcDbXrecord
280
     1
 90
        1
330
3C
  0
DICTIONARY
  5
3D
102
{ACAD_REACTORS
330
C
102
}
330
C
100
AcDbDictionary
281
     1
  3
CANNOSCALE
350
62
  3
CMLEADERSTYLE
350
172
  3
CTABLESTYLE
350
3E
  3
HPTRANSPARENCY
350
D5
  3
LIGHTSINBLOCKS
350
6F
  3
XCLIPFRAME
350
70
  0
DICTIONARY
  5
D3
102
{ACAD_REACTORS
330
C
102
}
330
C
100
AcDbDictionary
281
     1
  0
DICTIONARY
  5
71
102
{ACAD_REACTORS
330
C
102
}
330
C
100
AcDbDictionary
281
     1
  0
DICTIONARY
  5
BF
102
{ACAD_REACTORS
330
B8
102
}
330
B8
100
AcDbDictionary
281
     1
  3
ARGON_LAYERP_10
350
227D
  3
ARGON_LAYERP_11
350
2283
  3
ARGON_LAYERP_12
350
2286
  3
ARGON_LAYERP_13
350
21AC
  3
ARGON_LAYERP_14
350
1DB3
  3
ARGON_LAYERP_15
350
1AE7
  3
ARGON_LAYERP_26
350
EAD
  3
ARGON_LAYERP_27
350
C97
  3
ARGON_LAYERP_6
350
220F
  3
ARGON_LAYERP_7
350
2236
  3
ARGON_LAYERP_8
350
2268
  3
ARGON_LAYERP_9
350
227A
  0
DICTIONARY
  5
27AA
102
{ACAD_REACTORS
330
B8
102
}
330
B8
100
AcDbDictionary
281
     1
1001
ACAD
1000
<All
  0
SORTENTSTABLE
  5
C83
102
{ACAD_REACTORS
330
C82
102
}
330
C82
100
AcDbSortentsTable
330
1F
331
0
  5
2212
331
BD
  5
CC
331
C9
  5
CD
331
CA
  5
CF
331
CB
  5
D0
331
CC
  5
D1
331
CD
  5
D2
331
CF
  5
D7
331
D0
  5
D8
331
D1
  5
D9
331
D2
  5
DA
331
D7
  5
DB
331
D8
  5
DC
331
D9
  5
DD
331
DA
  5
DE
331
DB
  5
DF
331
DC
  5
E0
331
DD
  5
E1
331
DE
  5
E2
331
DF
  5
E3
331
E0
  5
E4
331
E1
  5
E5
331
E2
  5
E6
331
E3
  5
E7
331
E4
  5
E8
331
E5
  5
EA
331
E6
  5
EB
331
E7
  5
EC
331
E8
  5
ED
331
EA
  5
EE
331
EB
  5
EF
331
EC
  5
F0
331
ED
  5
F1
331
EE
  5
F2
331
EF
  5
F3
331
F0
  5
F4
331
F1
  5
F5
331
F2
  5
F6
331
F3
  5
F7
331
F4
  5
F8
331
F5
  5
F9
331
F6
  5
FA
331
F7
  5
FB
331
F8
  5
FC
331
F9
  5
FD
331
FA
  5
FE
331
FB
  5
FF
331
FC
  5
100
331
FD
  5
101
331
FE
  5
102
331
FF
  5
103
331
100
  5
104
331
101
  5
105
331
102
  5
106
331
103
  5
107
331
104
  5
109
331
105
  5
10B
331
106
  5
10C
331
107
  5
10D
331
109
  5
10F
331
10B
  5
110
331
10C
  5
112
331
10D
  5
113
331
10F
  5
114
331
110
  5
115
331
112
  5
118
331
113
  5
119
331
114
  5
11A
331
115
  5
11B
331
118
  5
11C
331
119
  5
11E
331
11A
  5
11F
331
11B
  5
120
331
11C
  5
121
331
11E
  5
122
331
11F
  5
123
331
120
  5
124
331
121
  5
125
331
122
  5
126
331
123
  5
127
331
124
  5
128
331
125
  5
129
331
126
  5
12A
331
127
  5
12B
331
128
  5
12C
331
129
  5
12E
331
12A
  5
12F
331
12B
  5
130
331
12C
  5
131
331
12E
  5
132
331
12F
  5
133
331
130
  5
135
331
131
  5
136
331
132
  5
137
331
133
  5
138
331
135
  5
139
331
136
  5
13B
331
137
  5
13C
331
138
  5
13D
331
139
  5
13F
331
13B
  5
140
331
13C
  5
141
331
13D
  5
142
331
13F
  5
143
331
140
  5
144
331
141
  5
145
331
142
  5
146
331
143
  5
147
331
144
  5
148
331
145
  5
149
331
146
  5
14A
331
147
  5
14C
331
148
  5
14D
331
149
  5
14E
331
14A
  5
14F
331
14C
  5
150
331
14D
  5
151
331
14E
  5
153
331
14F
  5
154
331
150
  5
156
331
151
  5
157
331
153
  5
158
331
154
  5
159
331
156
  5
15A
331
157
  5
15B
331
158
  5
15C
331
159
  5
15D
331
15A
  5
15E
331
15B
  5
15F
331
15C
  5
160
331
15D
  5
162
331
15E
  5
163
331
15F
  5
164
331
160
  5
165
331
162
  5
166
331
163
  5
167
331
164
  5
168
331
165
  5
169
331
166
  5
16A
331
167
  5
16B
331
168
  5
931
331
169
  5
C91
331
16A
  5
C95
331
16B
  5
C98
331
C7D
  5
CB
331
C91
  5
C9D
331
C95
  5
C9E
331
C98
  5
C9F
331
C9D
  5
CA0
331
C9E
  5
CA1
331
C9F
  5
CA2
331
CA0
  5
CA3
331
CA1
  5
CA4
331
CA2
  5
CA5
331
CA3
  5
CA6
331
CA4
  5
CA7
331
CA5
  5
CA9
331
CA6
  5
CAA
331
CA7
  5
CAB
331
CA9
  5
CAC
331
CAA
  5
CAD
331
CAB
  5
CAE
331
CAC
  5
CAF
331
CAD
  5
CB0
331
CAE
  5
CB1
331
CAF
  5
CB2
331
CB0
  5
CB3
331
CB1
  5
CB4
331
CB2
  5
CB5
331
CB3
  5
CB8
331
CB4
  5
CBA
331
CB5
  5
CBB
331
CB8
  5
CBC
331
CBA
  5
CBD
331
CBB
  5
CBE
331
CBC
  5
CBF
331
CBD
  5
CC0
331
CBE
  5
CC1
331
CBF
  5
CC2
331
CC0
  5
CC3
331
CC1
  5
CC4
331
CC2
  5
CC5
331
CC3
  5
CC6
331
CC4
  5
CC7
331
CC5
  5
CC8
331
CC6
  5
CC9
331
CC7
  5
CCA
331
CC8
  5
CCB
331
CC9
  5
CCC
331
CCA
  5
CCD
331
CCB
  5
CCE
331
CCC
  5
CCF
331
CCD
  5
CD0
331
CCE
  5
CD1
331
CCF
  5
CD2
331
CD0
  5
CD3
331
CD1
  5
CD4
331
CD2
  5
CD5
331
CD3
  5
CD6
331
CD4
  5
CD7
331
CD5
  5
CD8
331
CD6
  5
CD9
331
CD7
  5
CDA
331
CD8
  5
CDB
331
CD9
  5
CDC
331
CDA
  5
CDD
331
CDB
  5
CDE
331
CDC
  5
CDF
331
CDD
  5
CE0
331
CDE
  5
CE1
331
CDF
  5
CE2
331
CE0
  5
CE3
331
CE1
  5
CE4
331
CE2
  5
CE5
331
CE3
  5
CE6
331
CE4
  5
CE7
331
CE5
  5
CE8
331
CE6
  5
CEA
331
CE7
  5
CEB
331
CE8
  5
CEC
331
CEA
  5
CED
331
CEB
  5
CEE
331
CEC
  5
CF0
331
CED
  5
CF1
331
CEE
  5
CF2
331
CF0
  5
CF3
331
CF1
  5
CF4
331
CF2
  5
CF5
331
CF3
  5
CF6
331
CF4
  5
CF7
331
CF5
  5
CF8
331
CF6
  5
CF9
331
CF7
  5
CFA
331
CF8
  5
CFB
331
CF9
  5
CFC
331
CFA
  5
CFD
331
CFB
  5
CFF
331
CFC
  5
D00
331
CFD
  5
D01
331
CFF
  5
D02
331
D00
  5
D03
331
D01
  5
D04
331
D02
  5
D05
331
D03
  5
D06
331
D04
  5
D07
331
D05
  5
D08
331
D06
  5
D09
331
D07
  5
D0A
331
D08
  5
D0B
331
D09
  5
D0C
331
D0A
  5
D0D
331
D0B
  5
D0E
331
D0C
  5
D0F
331
D0D
  5
D10
331
D0E
  5
D11
331
D0F
  5
D12
331
D10
  5
D13
331
D11
  5
D14
331
D12
  5
D15
331
D13
  5
D17
331
D14
  5
D18
331
D15
  5
D19
331
D17
  5
D1A
331
D18
  5
D1B
331
D19
  5
D1C
331
D1A
  5
D1D
331
D1B
  5
D1E
331
D1C
  5
D1F
331
D1D
  5
D20
331
D1E
  5
D21
331
D1F
  5
D22
331
D20
  5
D23
331
D21
  5
D24
331
D22
  5
D25
331
D23
  5
D27
331
D24
  5
D28
331
D25
  5
D29
331
D27
  5
D31
331
D28
  5
D32
331
D29
  5
D33
331
D31
  5
D34
331
D32
  5
D35
331
D33
  5
D36
331
D34
  5
D37
331
D35
  5
D38
331
D36
  5
D39
331
D37
  5
D3A
331
D38
  5
D3B
331
D39
  5
D3C
331
D3A
  5
D3D
331
D3B
  5
D3E
331
D3C
  5
D3F
331
D3D
  5
D40
331
D3E
  5
D41
331
D3F
  5
D49
331
D40
  5
D4A
331
D41
  5
D4B
331
D49
  5
D4C
331
D4A
  5
D4D
331
D4B
  5
D4E
331
D4C
  5
D4F
331
D4D
  5
D50
331
D4E
  5
D51
331
D4F
  5
D52
331
D50
  5
D53
331
D51
  5
D54
331
D52
  5
D55
331
D53
  5
D57
331
D54
  5
D59
331
D55
  5
D5A
331
D57
  5
D5B
331
D59
  5
D5C
331
D5A
  5
D5D
331
D5B
  5
D5F
331
D5C
  5
D60
331
D5D
  5
D61
331
D5F
  5
D62
331
D60
  5
D63
331
D61
  5
D64
331
D62
  5
D65
331
D63
  5
D66
331
D64
  5
D67
331
D65
  5
D68
331
D66
  5
D69
331
D67
  5
D6A
331
D68
  5
D6B
331
D69
  5
D6C
331
D6A
  5
D6D
331
D6B
  5
D6E
331
D6C
  5
D6F
331
D6D
  5
D70
331
D6E
  5
D72
331
D6F
  5
D73
331
D70
  5
D74
331
D72
  5
D75
331
D73
  5
D76
331
D74
  5
D77
331
D75
  5
D7B
331
D76
  5
D7C
331
D77
  5
D7D
331
D7B
  5
D7E
331
D7C
  5
D7F
331
D7D
  5
D80
331
D7E
  5
D81
331
D7F
  5
D82
331
D80
  5
D83
331
D81
  5
D84
331
D82
  5
D85
331
D83
  5
D86
331
D84
  5
D87
331
D85
  5
D88
331
D86
  5
D89
331
D87
  5
D8A
331
D88
  5
D8B
331
D89
  5
D8C
331
D8A
  5
D8D
331
D8B
  5
D8E
331
D8C
  5
D8F
331
D8D
  5
D90
331
D8E
  5
D91
331
D8F
  5
D92
331
D90
  5
D93
331
D91
  5
D94
331
D92
  5
D95
331
D93
  5
D96
331
D94
  5
D97
331
D95
  5
D98
331
D96
  5
D99
331
D97
  5
D9A
331
D98
  5
D9B
331
D99
  5
D9C
331
D9A
  5
D9D
331
D9B
  5
D9E
331
D9C
  5
D9F
331
D9D
  5
DA0
331
D9E
  5
DA1
331
D9F
  5
DA2
331
DA0
  5
DA3
331
DA1
  5
DA4
331
DA2
  5
DA5
331
DA3
  5
DA6
331
DA4
  5
DA7
331
DA5
  5
DA8
331
DA6
  5
DA9
331
DA7
  5
DAA
331
DA8
  5
DAB
331
DA9
  5
DAC
331
DAA
  5
DAD
331
DAB
  5
DAE
331
DAC
  5
DAF
331
DAD
  5
DB0
331
DAE
  5
DB1
331
DAF
  5
DB2
331
DB0
  5
DB3
331
DB1
  5
DB4
331
DB2
  5
DB7
331
DB3
  5
DB8
331
DB4
  5
DB9
331
DB7
  5
DBA
331
DB8
  5
DBB
331
DB9
  5
DBC
331
DBA
  5
DBD
331
DBB
  5
DBE
331
DBC
  5
DBF
331
DBD
  5
DC0
331
DBE
  5
DC2
331
DBF
  5
DC3
331
DC0
  5
DC4
331
DC2
  5
DC5
331
DC3
  5
DC6
331
DC4
  5
DC7
331
DC5
  5
DC8
331
DC6
  5
DC9
331
DC7
  5
DCA
331
DC8
  5
DCB
331
DC9
  5
DCC
331
DCA
  5
DCD
331
DCB
  5
DCF
331
DCC
  5
DD0
331
DCD
  5
DD1
331
DCF
  5
DD2
331
DD0
  5
DD3
331
DD1
  5
DD4
331
DD2
  5
DD5
331
DD3
  5
DD6
331
DD4
  5
DD7
331
DD5
  5
DD8
331
DD6
  5
DD9
331
DD7
  5
DDA
331
DD8
  5
DDB
331
DD9
  5
DDC
331
DDA
  5
DDD
331
DDB
  5
DDF
331
DDC
  5
DE0
331
DDD
  5
DE1
331
DDF
  5
DE2
331
DE0
  5
DE3
331
DE1
  5
DE4
331
DE2
  5
DE5
331
DE3
  5
DE6
331
DE4
  5
DE7
331
DE5
  5
DE8
331
DE6
  5
DE9
331
DE7
  5
DEA
331
DE8
  5
DEB
331
DE9
  5
DEC
331
DEA
  5
DEE
331
DEB
  5
DEF
331
DEC
  5
DF0
331
DEE
  5
DF1
331
DEF
  5
DF2
331
DF0
  5
DF3
331
0
  5
DF4
331
0
  5
DF5
331
0
  5
DF6
331
DF4
  5
DF7
331
DF5
  5
DF9
331
DF6
  5
DFA
331
DF7
  5
DFB
331
DF9
  5
DFC
331
DFA
  5
DFD
331
DFB
  5
DFE
331
0
  5
DFF
331
0
  5
E00
331
DFE
  5
E01
331
0
  5
E02
331
E00
  5
E03
331
E01
  5
E04
331
E02
  5
E05
331
E03
  5
E06
331
E04
  5
E07
331
E05
  5
E08
331
E06
  5
E09
331
E07
  5
E0A
331
E08
  5
E0B
331
0
  5
E0C
331
E0A
  5
E0D
331
E0B
  5
E0E
331
E0C
  5
E0F
331
E0D
  5
E10
331
E0E
  5
E11
331
E0F
  5
E12
331
E10
  5
E13
331
E11
  5
E14
331
E12
  5
E15
331
E13
  5
E16
331
E14
  5
E17
331
E15
  5
E18
331
0
  5
E19
331
0
  5
E1A
331
0
  5
E1B
331
0
  5
E1C
331
0
  5
E1D
331
0
  5
E1E
331
E1C
  5
E1F
331
E1D
  5
E20
331
E1E
  5
E21
331
E1F
  5
E22
331
E20
  5
E23
331
E21
  5
E24
331
E22
  5
E25
331
E23
  5
E26
331
E24
  5
E27
331
E25
  5
E28
331
E26
  5
E29
331
E27
  5
E2B
331
E28
  5
E2C
331
E29
  5
E2D
331
E2B
  5
E2E
331
E2C
  5
E2F
331
E2D
  5
E30
331
E2E
  5
E3C
331
E2F
  5
E3E
331
E30
  5
E3F
331
E3C
  5
E41
331
E3E
  5
E43
331
E3F
  5
E44
331
E41
  5
E45
331
E43
  5
E47
331
E44
  5
E48
331
E45
  5
E4A
331
E47
  5
E4C
331
E48
  5
E4E
331
E4A
  5
E4F
331
E4C
  5
E53
331
E4E
  5
E54
331
E4F
  5
E55
331
E53
  5
E56
331
E54
  5
E57
331
E55
  5
E58
331
E56
  5
E59
331
E57
  5
E5A
331
E58
  5
E5B
331
E59
  5
E5C
331
E5A
  5
E5D
331
E5B
  5
E5E
331
E5C
  5
E5F
331
E5D
  5
E60
331
E5E
  5
E61
331
E5F
  5
E62
331
E60
  5
E63
331
E61
  5
E64
331
E62
  5
E65
331
E63
  5
E66
331
E64
  5
E67
331
E65
  5
E68
331
E66
  5
E69
331
E67
  5
E6A
331
E68
  5
E6B
331
E69
  5
E6C
331
E6A
  5
E6D
331
E6B
  5
E6E
331
E6C
  5
E6F
331
E6D
  5
E70
331
E6E
  5
E71
331
E6F
  5
E72
331
E70
  5
E73
331
E71
  5
E74
331
E72
  5
E75
331
E73
  5
E76
331
E74
  5
E77
331
E75
  5
E78
331
E76
  5
E79
331
E77
  5
E7A
331
E78
  5
E7B
331
E79
  5
E7D
331
E7A
  5
E7E
331
E7B
  5
E7F
331
E7D
  5
E80
331
E7E
  5
E84
331
E7F
  5
E85
331
E80
  5
CA
331
E84
  5
E86
331
E85
  5
E88
331
E86
  5
E8A
331
E88
  5
EAB
331
E8A
  5
EAC
331
EAB
  5
EAE
331
EAC
  5
EAF
331
EAE
  5
EB0
331
EAF
  5
EB1
331
EB0
  5
EB2
331
EB1
  5
EB3
331
EB2
  5
EB7
331
EB3
  5
FEF
331
EB7
  5
FF0
331
FEF
  5
FF1
331
FF0
  5
FF2
331
FF1
  5
FFF
331
FF2
  5
1000
331
FFF
  5
1003
331
1000
  5
1004
331
1003
  5
1007
331
1004
  5
1008
331
1007
  5
1009
331
1008
  5
103A
331
1009
  5
1069
331
103A
  5
1096
331
1069
  5
10C3
331
1096
  5
10F0
331
10C3
  5
111D
331
10F0
  5
114A
331
111D
  5
1177
331
114A
  5
11A4
331
1177
  5
11D1
331
11A4
  5
11FE
331
11D1
  5
122B
331
11FE
  5
1258
331
122B
  5
1285
331
1258
  5
12B2
331
0
  5
12DF
331
12B2
  5
130C
331
12DF
  5
1339
331
130C
  5
1366
331
1339
  5
13C0
331
1366
  5
13ED
331
13C0
  5
141A
331
13ED
  5
1447
331
141A
  5
1474
331
1447
  5
14A1
331
1474
  5
14CE
331
14A1
  5
14FB
331
14CE
  5
1528
331
14FB
  5
1555
331
1528
  5
1582
331
1555
  5
15AF
331
1582
  5
15DC
331
15AF
  5
1609
331
15DC
  5
1675
331
1609
  5
16F7
331
1675
  5
1723
331
16F7
  5
174F
331
1723
  5
177B
331
174F
  5
17A7
331
177B
  5
17FD
331
17A7
  5
1829
331
17FD
  5
1835
331
1829
  5
1836
331
1835
  5
1838
331
1836
  5
1839
331
1838
  5
183D
331
1839
  5
183F
331
183D
  5
1840
331
183F
  5
1841
331
1840
  5
1844
331
1841
  5
1846
331
1844
  5
189C
331
1846
  5
189D
331
189C
  5
189E
331
189D
  5
18C9
331
189E
  5
18F4
331
18C9
  5
18F5
331
18F4
  5
18F6
331
18F5
  5
18F7
331
18F6
  5
1922
331
18F7
  5
1923
331
1922
  5
194E
331
1923
  5
1979
331
194E
  5
19A4
331
1979
  5
19A5
331
19A4
  5
19A6
331
19A5
  5
19A7
331
19A6
  5
19A9
331
19A7
  5
19D4
331
19A9
  5
19D6
331
19D4
  5
19D7
331
19D6
  5
1A02
331
19D7
  5
1A2D
331
1A02
  5
1A58
331
1A2D
  5
1A83
331
1A58
  5
1A84
331
1A83
  5
1A85
331
1A84
  5
1A86
331
1A85
  5
1A87
331
1A86
  5
1A88
331
1A87
  5
1A89
331
1A88
  5
1AB4
331
1A89
  5
1AB5
331
1AB4
  5
1AE0
331
1AB5
  5
1AE1
331
1AE0
  5
1AE2
331
1AE1
  5
1AE3
331
1AE2
  5
1B13
331
1AE3
  5
1B1C
331
1B13
  5
1DB4
331
1B1C
  5
1DE0
331
1DB4
  5
1DE1
331
1DE0
  5
1DE2
331
1DE1
  5
1DE4
331
1DE2
  5
1DE5
331
1DE4
  5
1DE6
331
1DE5
  5
1DE7
331
1DE6
  5
1DE8
331
1DE7
  5
1DE9
331
1DE8
  5
1DEA
331
1DE9
  5
1E16
331
1DEA
  5
1E42
331
1E16
  5
1E6E
331
1E42
  5
1E9A
331
1E6E
  5
1EC6
331
1E9A
  5
1EF2
331
1EC6
  5
1F1E
331
1EF2
  5
1F4A
331
1F1E
  5
1F76
331
1F4A
  5
1FA2
331
1F76
  5
1FCE
331
1FA2
  5
1FFA
331
1FCE
  5
2026
331
1FFA
  5
2052
331
2026
  5
207E
331
2052
  5
20AA
331
207E
  5
20E0
331
20AA
  5
210D
331
20E0
  5
213A
331
0
  5
2167
331
213A
  5
2194
331
2167
  5
21D8
331
2194
  5
2204
331
21D8
  5
2210
331
2204
  5
2211
331
2211
  5
2213
331
2212
  5
2214
331
2213
  5
2215
331
2214
  5
2216
331
2215
  5
2217
331
2216
  5
2218
331
2217
  5
2219
331
2218
  5
221A
331
2219
  5
221B
331
221A
  5
221C
331
221B
  5
221D
331
221C
  5
221E
331
221D
  5
221F
331
221E
  5
2220
331
221F
  5
2221
331
2220
  5
2222
331
2221
  5
2223
331
2222
  5
2224
331
2223
  5
2225
331
2224
  5
2226
331
2225
  5
2227
331
2226
  5
2228
331
2227
  5
2229
331
2228
  5
222A
331
2229
  5
222B
331
222A
  5
222C
331
222B
  5
222D
331
222C
  5
222E
331
222D
  5
222F
331
222E
  5
2230
331
222F
  5
2231
331
2231
  5
2233
331
2232
  5
2234
331
2233
  5
2264
331
2234
  5
2265
331
2265
  5
2267
331
2266
  5
2269
331
2269
  5
226B
331
226B
  5
226D
331
226C
  5
226E
331
226D
  5
226F
331
226E
  5
2270
331
226F
  5
2271
331
2270
  5
2272
331
0
  5
2273
331
0
  5
2274
331
2273
  5
2275
331
2274
  5
2276
331
2275
  5
2277
331
2276
  5
2278
331
2277
  5
2279
331
2279
  5
227C
331
227B
  5
227E
331
227F
  5
2281
331
2280
  5
2284
331
2281
  5
2285
331
2284
  5
2287
331
0
  5
22B2
331
2288
  5
22B3
331
22B3
  5
22DE
331
22DE
  5
2309
331
2309
  5
2334
331
2334
  5
2363
331
2363
  5
BD
331
2364
  5
C9
  0
IMAGEDEF
  5
BC
102
{ACAD_REACTORS
330
BB
330
BE
102
}
330
BB
100
AcDbRasterImageDef
 90
        0
  1
C:/Users/sam/Google Drive/Customers/EIT ICT Labs/Office floor plan images floor 0-3/floor 0 office.png
 10
2072.0
 20
556.0
 11
0.0004826254826254826
 21
0.0004826254826254826
280
     1
281
     0
  0
IMAGEDEF
  5
C7C
102
{ACAD_REACTORS
330
BB
330
C7E
102
}
330
BB
100
AcDbRasterImageDef
 90
        0
  1
C:/Users/sam/Google Drive/Customers/EIT ICT Labs/Office floor plan images floor 0-3/floor 1 office.png
 10
2070.0
 20
594.0
 11
0.0004830917874396135
 21
0.0004830917874396135
280
     1
281
     0
  0
IMAGEDEF
  5
C90
102
{ACAD_REACTORS
330
BB
330
C92
102
}
330
BB
100
AcDbRasterImageDef
 90
        0
  1
C:/Users/sam/Google Drive/Customers/EIT ICT Labs/Office floor plan images floor 0-3/floor 2 office.png
 10
2073.0
 20
584.0
 11
0.000482392667631452
 21
0.000482392667631452
280
     1
281
     0
  0
IMAGEDEF
  5
C94
102
{ACAD_REACTORS
330
BB
330
C96
102
}
330
BB
100
AcDbRasterImageDef
 90
        0
  1
C:/Users/sam/Google Drive/Customers/EIT ICT Labs/Office floor plan images floor 0-3/floor 3 office.png
 10
2072.0
 20
574.0
 11
0.0004826254826254826
 21
0.0004826254826254826
280
     1
281
     0
  0
LAYOUT
  5
22
102
{ACAD_REACTORS
330
1A
102
}
330
1A
100
AcDbPlotSettings
  1

  2
none_device
  4
ISO_A3_(420.00_x_297.00_MM)
  6

 40
7.5
 41
20.0
 42
7.5
 43
20.0
 44
420.0
 45
297.0
 46
20.78282828282826
 47
0.0
 48
0.0
 49
0.0
140
0.0
141
0.0
142
1.0
143
1.155642023346303
 70
  1204
 72
     1
 73
     0
 74
     1
  7
monochrome.ctb
 75
     0
 76
     0
 77
     2
 78
   300
147
0.8653198653198654
148
-134.1869158878504
149
0.0
100
AcDbLayout
  1
Model
 70
     1
 71
     0
 10
0.0
 20
0.0
 11
420.0
 21
297.0
 12
0.0
 22
0.0
 32
0.0
 14
275.9707819925063
 24
-3805.0
 34
0.0
 15
4185.293863659263
 25
631.2422836565828
 35
0.0
146
0.0
 13
0.0
 23
0.0
 33
0.0
 16
1.0
 26
0.0
 36
0.0
 17
0.0
 27
1.0
 37
0.0
 76
     0
330
1F
331
29
  0
LAYOUT
  5
1E
102
{ACAD_REACTORS
330
1A
102
}
330
1A
100
AcDbPlotSettings
  1

  2
none_device
  4

  6

 40
0.0
 41
0.0
 42
0.0
 43
0.0
 44
0.0
 45
0.0
 46
0.0
 47
0.0
 48
0.0
 49
0.0
140
0.0
141
0.0
142
1.0
143
1.0
 70
   688
 72
     0
 73
     0
 74
     5
  7

 75
    16
 76
     0
 77
     2
 78
   300
147
1.0
148
0.0
149
0.0
100
AcDbLayout
  1
Sheet1
 70
     1
 71
     1
 10
0.0
 20
0.0
 11
420.0
 21
297.0
 12
0.0
 22
0.0
 32
0.0
 14
1.000000000000000E+20
 24
1.000000000000000E+20
 34
1.000000000000000E+20
 15
-1.000000000000000E+20
 25
-1.000000000000000E+20
 35
-1.000000000000000E+20
146
0.0
 13
0.0
 23
0.0
 33
0.0
 16
1.0
 26
0.0
 36
0.0
 17
0.0
 27
1.0
 37
0.0
 76
     0
330
1B
  0
LAYOUT
  5
26
102
{ACAD_REACTORS
330
1A
102
}
330
1A
100
AcDbPlotSettings
  1

  2
none_device
  4

  6

 40
0.0
 41
0.0
 42
0.0
 43
0.0
 44
0.0
 45
0.0
 46
0.0
 47
0.0
 48
0.0
 49
0.0
140
0.0
141
0.0
142
1.0
143
1.0
 70
   688
 72
     0
 73
     0
 74
     5
  7

 75
    16
 76
     0
 77
     2
 78
   300
147
1.0
148
0.0
149
0.0
100
AcDbLayout
  1
Sheet2
 70
     1
 71
     2
 10
0.0
 20
0.0
 11
0.0
 21
0.0
 12
0.0
 22
0.0
 32
0.0
 14
0.0
 24
0.0
 34
0.0
 15
0.0
 25
0.0
 35
0.0
146
0.0
 13
0.0
 23
0.0
 33
0.0
 16
1.0
 26
0.0
 36
0.0
 17
0.0
 27
1.0
 37
0.0
 76
     0
330
23
  0
MATERIAL
  5
74
102
{ACAD_REACTORS
330
72
102
}
330
72
100
AcDbMaterial
  1
ByBlock
 72
     1
 94
      127
  0
MATERIAL
  5
73
102
{ACAD_REACTORS
330
72
102
}
330
72
100
AcDbMaterial
  1
ByLayer
 72
     1
 94
      127
  0
MATERIAL
  5
75
102
{ACAD_REACTORS
330
72
102
}
330
72
100
AcDbMaterial
  1
Global
 72
     1
 94
      127
  0
MLEADERSTYLE
  5
B7
102
{ACAD_REACTORS
330
3F
102
}
330
3F
100
AcDbMLeaderStyle
179
     2
170
     2
171
     1
172
     0
 90
        2
 40
0.0
 41
0.0
173
     1
 91
-1056964608
340
14
 92
       -2
290
     1
 42
2.0
291
     1
 43
8.0
  3
Standard
341
0
 44
4.0
300

342
11
174
     1
178
     6
175
     1
176
     0
 93
-1056964608
 45
4.0
292
     0
297
     0
 46
4.0
343
0
 94
-1056964608
 47
1.0
 49
1.0
140
1.0
293
     1
141
0.0
294
     1
177
     0
142
1.0
295
     0
296
     0
143
3.75
271
     0
272
     9
273
     9
298
     0
  0
MLINESTYLE
  5
18
102
{ACAD_REACTORS
330
17
102
}
330
17
100
AcDbMlineStyle
  2
Standard
 70
     0
  3

 62
   256
 51
90.0
 52
90.0
 71
     2
 49
0.5
 62
   256
  6
BYLAYER
 49
-0.5
 62
   256
  6
BYLAYER
  0
ACDBPLACEHOLDER
  5
F
102
{ACAD_REACTORS
330
E
102
}
330
E
  0
SCALE
  5
41
102
{ACAD_REACTORS
330
40
102
}
330
40
100
AcDbScale
 70
     0
300
1:1
140
1.0
141
1.0
290
     1
  0
SCALE
  5
42
102
{ACAD_REACTORS
330
40
102
}
330
40
100
AcDbScale
 70
     0
300
1:2
140
1.0
141
2.0
290
     0
  0
SCALE
  5
43
102
{ACAD_REACTORS
330
40
102
}
330
40
100
AcDbScale
 70
     0
300
1:4
140
1.0
141
4.0
290
     0
  0
SCALE
  5
44
102
{ACAD_REACTORS
330
40
102
}
330
40
100
AcDbScale
 70
     0
300
1:5
140
1.0
141
5.0
290
     0
  0
SCALE
  5
45
102
{ACAD_REACTORS
330
40
102
}
330
40
100
AcDbScale
 70
     0
300
1:8
140
1.0
141
8.0
290
     0
  0
SCALE
  5
46
102
{ACAD_REACTORS
330
40
102
}
330
40
100
AcDbScale
 70
     0
300
1:10
140
1.0
141
10.0
290
     0
  0
SCALE
  5
47
102
{ACAD_REACTORS
330
40
102
}
330
40
100
AcDbScale
 70
     0
300
1:16
140
1.0
141
16.0
290
     0
  0
SCALE
  5
48
102
{ACAD_REACTORS
330
40
102
}
330
40
100
AcDbScale
 70
     0
300
1:20
140
1.0
141
20.0
290
     0
  0
SCALE
  5
49
102
{ACAD_REACTORS
330
40
102
}
330
40
100
AcDbScale
 70
     0
300
1:30
140
1.0
141
30.0
290
     0
  0
SCALE
  5
4A
102
{ACAD_REACTORS
330
40
102
}
330
40
100
AcDbScale
 70
     0
300
1:40
140
1.0
141
40.0
290
     0
  0
SCALE
  5
4B
102
{ACAD_REACTORS
330
40
102
}
330
40
100
AcDbScale
 70
     0
300
1:50
140
1.0
141
50.0
290
     0
  0
SCALE
  5
4C
102
{ACAD_REACTORS
330
40
102
}
330
40
100
AcDbScale
 70
     0
300
1:100
140
1.0
141
100.0
290
     0
  0
SCALE
  5
4D
102
{ACAD_REACTORS
330
40
102
}
330
40
100
AcDbScale
 70
     0
300
2:1
140
2.0
141
1.0
290
     0
  0
SCALE
  5
4E
102
{ACAD_REACTORS
330
40
102
}
330
40
100
AcDbScale
 70
     0
300
4:1
140
4.0
141
1.0
290
     0
  0
SCALE
  5
4F
102
{ACAD_REACTORS
330
40
102
}
330
40
100
AcDbScale
 70
     0
300
8:1
140
8.0
141
1.0
290
     0
  0
SCALE
  5
50
102
{ACAD_REACTORS
330
40
102
}
330
40
100
AcDbScale
 70
     0
300
10:1
140
10.0
141
1.0
290
     0
  0
SCALE
  5
51
102
{ACAD_REACTORS
330
40
102
}
330
40
100
AcDbScale
 70
     0
300
100:1
140
100.0
141
1.0
290
     0
  0
SCALE
  5
52
102
{ACAD_REACTORS
330
40
102
}
330
40
100
AcDbScale
 70
     0
300
1/128" = 1'-0"
140
0.0078125
141
12.0
290
     0
  0
SCALE
  5
53
102
{ACAD_REACTORS
330
40
102
}
330
40
100
AcDbScale
 70
     0
300
1/64" = 1'-0"
140
0.015625
141
12.0
290
     0
  0
SCALE
  5
54
102
{ACAD_REACTORS
330
40
102
}
330
40
100
AcDbScale
 70
     0
300
1/32" = 1'-0"
140
0.03125
141
12.0
290
     0
  0
SCALE
  5
55
102
{ACAD_REACTORS
330
40
102
}
330
40
100
AcDbScale
 70
     0
300
1/16" = 1'-0"
140
0.0625
141
12.0
290
     0
  0
SCALE
  5
56
102
{ACAD_REACTORS
330
40
102
}
330
40
100
AcDbScale
 70
     0
300
3/32" = 1'-0"
140
0.09375
141
12.0
290
     0
  0
SCALE
  5
57
102
{ACAD_REACTORS
330
40
102
}
330
40
100
AcDbScale
 70
     0
300
1/8" = 1'-0"
140
0.125
141
12.0
290
     0
  0
SCALE
  5
58
102
{ACAD_REACTORS
330
40
102
}
330
40
100
AcDbScale
 70
     0
300
3/16" = 1'-0"
140
0.1875
141
12.0
290
     0
  0
SCALE
  5
59
102
{ACAD_REACTORS
330
40
102
}
330
40
100
AcDbScale
 70
     0
300
1/4" = 1'-0"
140
0.25
141
12.0
290
     0
  0
SCALE
  5
5A
102
{ACAD_REACTORS
330
40
102
}
330
40
100
AcDbScale
 70
     0
300
3/8" = 1'-0"
140
0.375
141
12.0
290
     0
  0
SCALE
  5
5B
102
{ACAD_REACTORS
330
40
102
}
330
40
100
AcDbScale
 70
     0
300
1/2" = 1'-0"
140
0.5
141
12.0
290
     0
  0
SCALE
  5
5C
102
{ACAD_REACTORS
330
40
102
}
330
40
100
AcDbScale
 70
     0
300
3/4" = 1'-0"
140
0.75
141
12.0
290
     0
  0
SCALE
  5
5D
102
{ACAD_REACTORS
330
40
102
}
330
40
100
AcDbScale
 70
     0
300
1" = 1'-0"
140
1.0
141
12.0
290
     0
  0
SCALE
  5
5E
102
{ACAD_REACTORS
330
40
102
}
330
40
100
AcDbScale
 70
     0
300
1-1/2" = 1'-0"
140
1.5
141
12.0
290
     0
  0
SCALE
  5
5F
102
{ACAD_REACTORS
330
40
102
}
330
40
100
AcDbScale
 70
     0
300
3" = 1'-0"
140
3.0
141
12.0
290
     0
  0
SCALE
  5
60
102
{ACAD_REACTORS
330
40
102
}
330
40
100
AcDbScale
 70
     0
300
6" = 1'-0"
140
6.0
141
12.0
290
     0
  0
SCALE
  5
61
102
{ACAD_REACTORS
330
40
102
}
330
40
100
AcDbScale
 70
     0
300
1'-0" = 1'-0"
140
12.0
141
12.0
290
     0
  0
TABLESTYLE
  5
3C
102
{ACAD_REACTORS
330
3B
102
}
102
{ACAD_XDICTIONARY
360
28C5
102
}
330
3B
100
AcDbTableStyle
  3
Standard
 70
     0
 71
     0
 40
1.5
 41
1.5
280
     0
281
     0
  7
Standard
140
4.5
170
     2
 62
     0
 63
   257
283
     0
 90
      512
 91
        0
  1

274
    -2
284
     1
 64
     0
275
    -2
285
     1
 65
     0
276
    -2
286
     1
 66
     0
277
    -2
287
     1
 67
     0
278
    -2
288
     1
 68
     0
279
    -2
289
     1
 69
     0
  7
Standard
140
6.0
170
     5
 62
     0
 63
   257
283
     0
 90
      512
 91
        0
  1

274
    -2
284
     1
 64
     0
275
    -2
285
     1
 65
     0
276
    -2
286
     1
 66
     0
277
    -2
287
     1
 67
     0
278
    -2
288
     1
 68
     0
279
    -2
289
     1
 69
     0
  7
Standard
140
4.5
170
     5
 62
     0
 63
   257
283
     0
 90
      512
 91
        0
  1

274
    -2
284
     1
 64
     0
275
    -2
285
     1
 65
     0
276
    -2
286
     1
 66
     0
277
    -2
287
     1
 67
     0
278
    -2
288
     1
 68
     0
279
    -2
289
     1
 69
     0
  0
VISUALSTYLE
  5
2F
102
{ACAD_REACTORS
330
2A
102
}
330
2A
100
AcDbVisualStyle
  2
2dWireframe
 70
     4
177
     3
291
     0
 70
    58
 90
        0
176
     1
 90
        2
176
     1
 90
        0
176
     1
 90
        0
176
     1
 40
-0.6
176
     1
 40
-30.0
176
     1
 62
     7
420
 16777215
176
     1
 90
        1
176
     1
 90
        4
176
     1
 62
     7
176
     1
 62
   257
176
     1
 90
        1
176
     1
 90
        1
176
     1
 40
1.0
176
     1
 90
        0
176
     1
 62
   257
176
     1
 40
1.0
176
     1
 90
        1
176
     1
 90
        6
176
     1
 90
        2
176
     1
 62
     7
176
     1
 90
        5
176
     1
 90
        0
176
     1
 90
        0
176
     1
290
     0
176
     1
 90
        1
176
     1
 40
0.0
176
     1
 90
        0
176
     1
290
     1
176
     1
290
     1
176
     1
290
     0
176
     1
290
     0
176
     1
290
     0
176
     1
290
     0
176
     1
290
     0
176
     1
290
     0
176
     1
290
     0
176
     1
 90
       50
176
     1
 40
0.0
176
     1
 40
1.0
176
     1
 90
        0
176
     1
 62
    18
420
        0
176
     1
 90
       50
176
     1
 90
        3
176
     1
 62
     5
420
      255
176
     1
290
     0
176
     1
 90
       50
176
     1
 90
       50
176
     1
 90
       50
176
     1
290
     0
176
     1
 90
       50
176
     1
 62
   256
176
     0
 40
1.0
176
     0
 90
        2
176
     1
  1
strokes_ogs.tif
176
     1
290
     0
176
     1
 40
1.0
176
     1
 40
1.0
176
     1
  0
VISUALSTYLE
  5
31
102
{ACAD_REACTORS
330
2A
102
}
330
2A
100
AcDbVisualStyle
  2
3D Hidden
 70
     6
177
     3
291
     0
 70
    58
 90
        1
176
     1
 90
        2
176
     1
 90
        2
176
     1
 90
        0
176
     1
 40
-0.6
176
     1
 40
-30.0
176
     1
 62
     7
420
 16777215
176
     1
 90
        2
176
     1
 90
        2
176
     1
 62
     7
176
     1
 62
   257
176
     1
 90
        2
176
     1
 90
        1
176
     1
 40
40.0
176
     1
 90
        0
176
     1
 62
   257
176
     1
 40
1.0
176
     1
 90
        1
176
     1
 90
        6
176
     1
 90
        2
176
     1
 62
     7
176
     1
 90
        3
176
     1
 90
        0
176
     1
 90
        0
176
     1
290
     0
176
     1
 90
        1
176
     1
 40
0.0
176
     1
 90
        0
176
     1
290
     0
176
     1
290
     1
176
     1
290
     1
176
     1
290
     0
176
     1
290
     0
176
     1
290
     0
176
     1
290
     0
176
     1
290
     0
176
     1
290
     0
176
     1
 90
       50
176
     1
 40
0.0
176
     1
 40
1.0
176
     1
 90
        0
176
     1
 62
    18
420
        0
176
     1
 90
       50
176
     1
 90
        3
176
     1
 62
     5
420
      255
176
     1
290
     0
176
     1
 90
       50
176
     1
 90
       50
176
     1
 90
       50
176
     1
290
     0
176
     1
 90
       50
176
     1
 62
   256
176
     0
 40
1.0
176
     0
 90
        2
176
     1
  1
strokes_ogs.tif
176
     1
290
     0
176
     1
 40
1.0
176
     1
 40
1.0
176
     1
  0
VISUALSTYLE
  5
30
102
{ACAD_REACTORS
330
2A
102
}
330
2A
100
AcDbVisualStyle
  2
3dWireframe
 70
     5
177
     3
291
     0
 70
    58
 90
        0
176
     1
 90
        2
176
     1
 90
        0
176
     1
 90
        0
176
     1
 40
-0.6
176
     1
 40
-30.0
176
     1
 62
     7
420
 16777215
176
     1
 90
        1
176
     1
 90
        4
176
     1
 62
     7
176
     1
 62
   257
176
     1
 90
        1
176
     1
 90
        1
176
     1
 40
1.0
176
     1
 90
        0
176
     1
 62
   257
176
     1
 40
1.0
176
     1
 90
        1
176
     1
 90
        6
176
     1
 90
        2
176
     1
 62
     7
176
     1
 90
        5
176
     1
 90
        0
176
     1
 90
        0
176
     1
290
     0
176
     1
 90
        1
176
     1
 40
0.0
176
     1
 90
        0
176
     1
290
     0
176
     1
290
     1
176
     1
290
     1
176
     1
290
     0
176
     1
290
     0
176
     1
290
     0
176
     1
290
     0
176
     1
290
     0
176
     1
290
     0
176
     1
 90
       50
176
     1
 40
0.0
176
     1
 40
1.0
176
     1
 90
        0
176
     1
 62
    18
420
        0
176
     1
 90
       50
176
     1
 90
        3
176
     1
 62
     5
420
      255
176
     1
290
     0
176
     1
 90
       50
176
     1
 90
       50
176
     1
 90
       50
176
     1
290
     0
176
     1
 90
       50
176
     1
 62
   256
176
     0
 40
1.0
176
     0
 90
        2
176
     1
  1
strokes_ogs.tif
176
     1
290
     0
176
     1
 40
1.0
176
     1
 40
1.0
176
     1
  0
VISUALSTYLE
  5
32
102
{ACAD_REACTORS
330
2A
102
}
330
2A
100
AcDbVisualStyle
  2
Basic
 70
     7
177
     3
291
     1
 70
    58
 90
        1
176
     1
 90
        0
176
     1
 90
        1
176
     1
 90
        0
176
     1
 40
-0.6
176
     1
 40
-30.0
176
     1
 62
     7
420
 16777215
176
     1
 90
        0
176
     1
 90
        4
176
     1
 62
     7
176
     1
 62
   257
176
     1
 90
        1
176
     1
 90
        1
176
     1
 40
1.0
176
     1
 90
        8
176
     1
 62
     7
176
     1
 40
1.0
176
     1
 90
        1
176
     1
 90
        6
176
     1
 90
        2
176
     1
 62
     7
176
     1
 90
        5
176
     1
 90
        0
176
     1
 90
        0
176
     1
290
     0
176
     1
 90
        1
176
     1
 40
0.0
176
     1
 90
        0
176
     1
290
     0
176
     1
290
     1
176
     1
290
     1
176
     1
290
     0
176
     1
290
     0
176
     1
290
     0
176
     1
290
     0
176
     1
290
     0
176
     1
290
     0
176
     1
 90
       50
176
     1
 40
0.0
176
     1
 40
1.0
176
     1
 90
        0
176
     1
 62
    18
420
        0
176
     1
 90
       50
176
     1
 90
        3
176
     1
 62
     5
420
      255
176
     1
290
     0
176
     1
 90
       50
176
     1
 90
       50
176
     1
 90
       50
176
     1
290
     0
176
     1
 90
       50
176
     1
 62
   256
176
     0
 40
1.0
176
     0
 90
        2
176
     1
  1
strokes_ogs.tif
176
     1
290
     0
176
     1
 40
1.0
176
     1
 40
1.0
176
     1
  0
VISUALSTYLE
  5
36
102
{ACAD_REACTORS
330
2A
102
}
330
2A
100
AcDbVisualStyle
  2
Brighten
 70
    12
177
     3
291
     1
 70
    58
 90
        2
176
     1
 90
        2
176
     1
 90
        0
176
     1
 90
        0
176
     1
 40
-0.6
176
     1
 40
-30.0
176
     1
 62
     7
420
 16777215
176
     1
 90
        1
176
     1
 90
        4
176
     1
 62
     7
176
     1
 62
   257
176
     1
 90
        1
176
     1
 90
        1
176
     1
 40
1.0
176
     1
 90
        8
176
     1
 62
     7
176
     1
 40
1.0
176
     1
 90
        1
176
     1
 90
        6
176
     1
 90
        2
176
     1
 62
     7
176
     1
 90
        5
176
     1
 90
        0
176
     1
 90
        0
176
     1
290
     0
176
     1
 90
        1
176
     1
 40
50.0
176
     1
 90
        0
176
     1
290
     0
176
     1
290
     1
176
     1
290
     1
176
     1
290
     0
176
     1
290
     0
176
     1
290
     0
176
     1
290
     0
176
     1
290
     0
176
     1
290
     0
176
     1
 90
       50
176
     1
 40
0.0
176
     1
 40
1.0
176
     1
 90
        0
176
     1
 62
    18
420
        0
176
     1
 90
       50
176
     1
 90
        3
176
     1
 62
     5
420
      255
176
     1
290
     0
176
     1
 90
       50
176
     1
 90
       50
176
     1
 90
       50
176
     1
290
     0
176
     1
 90
       50
176
     1
 62
   256
176
     0
 40
1.0
176
     0
 90
        2
176
     1
  1
strokes_ogs.tif
176
     1
290
     0
176
     1
 40
1.0
176
     1
 40
1.0
176
     1
  0
VISUALSTYLE
  5
3A
102
{ACAD_REACTORS
330
2A
102
}
330
2A
100
AcDbVisualStyle
  2
ColorChange
 70
    16
177
     3
291
     1
 70
    58
 90
        2
176
     1
 90
        2
176
     1
 90
        3
176
     1
 90
        0
176
     1
 40
-0.6
176
     1
 40
-30.0
176
     1
 62
     8
420
  8421504
176
     1
 90
        1
176
     1
 90
        4
176
     1
 62
     7
176
     1
 62
   257
176
     1
 90
        1
176
     1
 90
        1
176
     1
 40
1.0
176
     1
 90
        8
176
     1
 62
     8
420
  8421504
176
     1
 40
1.0
176
     1
 90
        1
176
     1
 90
        6
176
     1
 90
        2
176
     1
 62
     7
176
     1
 90
        5
176
     1
 90
        0
176
     1
 90
        0
176
     1
290
     0
176
     1
 90
        1
176
     1
 40
0.0
176
     1
 90
        0
176
     1
290
     0
176
     1
290
     1
176
     1
290
     1
176
     1
290
     0
176
     1
290
     0
176
     1
290
     0
176
     1
290
     0
176
     1
290
     0
176
     1
290
     0
176
     1
 90
       50
176
     1
 40
0.0
176
     1
 40
1.0
176
     1
 90
        0
176
     1
 62
    18
420
        0
176
     1
 90
       50
176
     1
 90
        3
176
     1
 62
     5
420
      255
176
     1
290
     0
176
     1
 90
       50
176
     1
 90
       50
176
     1
 90
       50
176
     1
290
     0
176
     1
 90
       50
176
     1
 62
   256
176
     0
 40
1.0
176
     0
 90
        2
176
     1
  1
strokes_ogs.tif
176
     1
290
     0
176
     1
 40
1.0
176
     1
 40
1.0
176
     1
  0
VISUALSTYLE
  5
34
102
{ACAD_REACTORS
330
2A
102
}
330
2A
100
AcDbVisualStyle
  2
Conceptual
 70
     9
177
     3
291
     0
 70
    58
 90
        3
176
     1
 90
        2
176
     1
 90
        0
176
     1
 90
        0
176
     1
 40
-0.6
176
     1
 40
-30.0
176
     1
 62
     7
420
 16777215
176
     1
 90
        2
176
     1
 90
        2
176
     1
 62
     7
176
     1
 62
   257
176
     1
 90
        1
176
     1
 90
        1
176
     1
 40
40.0
176
     1
 90
        8
176
     1
 62
     7
176
     1
 40
1.0
176
     1
 90
        1
176
     1
 90
        6
176
     1
 90
        2
176
     1
 62
     7
176
     1
 90
        3
176
     1
 90
        0
176
     1
 90
        0
176
     1
290
     0
176
     1
 90
        1
176
     1
 40
0.0
176
     1
 90
        0
176
     1
290
     0
176
     1
290
     1
176
     1
290
     1
176
     1
290
     0
176
     1
290
     0
176
     1
290
     0
176
     1
290
     0
176
     1
290
     0
176
     1
290
     0
176
     1
 90
       50
176
     1
 40
0.0
176
     1
 40
1.0
176
     1
 90
        0
176
     1
 62
    18
420
        0
176
     1
 90
       50
176
     1
 90
        3
176
     1
 62
     5
420
      255
176
     1
290
     0
176
     1
 90
       50
176
     1
 90
       50
176
     1
 90
       50
176
     1
290
     0
176
     1
 90
       50
176
     1
 62
   256
176
     0
 40
1.0
176
     0
 90
        2
176
     1
  1
strokes_ogs.tif
176
     1
290
     0
176
     1
 40
1.0
176
     1
 40
1.0
176
     1
  0
VISUALSTYLE
  5
35
102
{ACAD_REACTORS
330
2A
102
}
330
2A
100
AcDbVisualStyle
  2
Dim
 70
    11
177
     3
291
     1
 70
    58
 90
        2
176
     1
 90
        2
176
     1
 90
        0
176
     1
 90
        0
176
     1
 40
-0.6
176
     1
 40
-30.0
176
     1
 62
     7
420
 16777215
176
     1
 90
        1
176
     1
 90
        4
176
     1
 62
     7
176
     1
 62
   257
176
     1
 90
        1
176
     1
 90
        1
176
     1
 40
1.0
176
     1
 90
        8
176
     1
 62
     7
176
     1
 40
1.0
176
     1
 90
        1
176
     1
 90
        6
176
     1
 90
        2
176
     1
 62
     7
176
     1
 90
        5
176
     1
 90
        0
176
     1
 90
        0
176
     1
290
     0
176
     1
 90
        1
176
     1
 40
-50.0
176
     1
 90
        0
176
     1
290
     0
176
     1
290
     1
176
     1
290
     1
176
     1
290
     0
176
     1
290
     0
176
     1
290
     0
176
     1
290
     0
176
     1
290
     0
176
     1
290
     0
176
     1
 90
       50
176
     1
 40
0.0
176
     1
 40
1.0
176
     1
 90
        0
176
     1
 62
    18
420
        0
176
     1
 90
       50
176
     1
 90
        3
176
     1
 62
     5
420
      255
176
     1
290
     0
176
     1
 90
       50
176
     1
 90
       50
176
     1
 90
       50
176
     1
290
     0
176
     1
 90
       50
176
     1
 62
   256
176
     0
 40
1.0
176
     0
 90
        2
176
     1
  1
strokes_ogs.tif
176
     1
290
     0
176
     1
 40
1.0
176
     1
 40
1.0
176
     1
  0
VISUALSTYLE
  5
7A
102
{ACAD_REACTORS
330
2A
102
}
330
2A
100
AcDbVisualStyle
  2
EdgeColorOff
 70
    22
177
     3
291
     1
 70
    58
 90
        2
176
     0
 90
        2
176
     0
 90
        0
176
     0
 90
        0
176
     0
 40
0.6
176
     0
 40
30.0
176
     0
 62
     7
420
 16777215
176
     0
 90
        1
176
     0
 90
        4
176
     0
 62
     7
176
     0
 62
   257
176
     0
 90
        1
176
     0
 90
        1
176
     0
 40
1.0
176
     0
 90
        8
176
     2
 62
     7
176
     0
 40
1.0
176
     0
 90
        1
176
     0
 90
        6
176
     0
 90
        2
176
     0
 62
     7
176
     0
 90
        5
176
     0
 90
        0
176
     0
 90
        0
176
     0
290
     0
176
     0
 90
        1
176
     0
 40
0.0
176
     0
 90
        0
176
     0
290
     0
176
     0
290
     1
176
     0
290
     1
176
     0
290
     0
176
     0
290
     0
176
     0
290
     0
176
     0
290
     0
176
     0
290
     0
176
     0
290
     0
176
     0
 90
       50
176
     0
 40
0.0
176
     0
 40
1.0
176
     0
 90
        0
176
     0
 62
    18
420
        0
176
     0
 90
       50
176
     0
 90
        3
176
     0
 62
     5
420
      255
176
     0
290
     0
176
     0
 90
       50
176
     0
 90
       50
176
     0
 90
       50
176
     0
290
     0
176
     0
 90
       50
176
     0
 62
   256
176
     0
 40
1.0
176
     0
 90
        2
176
     0
  1
strokes_ogs.tif
176
     0
290
     0
176
     0
 40
1.0
176
     0
 40
1.0
176
     0
  0
VISUALSTYLE
  5
39
102
{ACAD_REACTORS
330
2A
102
}
330
2A
100
AcDbVisualStyle
  2
Facepattern
 70
    15
177
     3
291
     1
 70
    58
 90
        2
176
     1
 90
        2
176
     1
 90
        0
176
     1
 90
        0
176
     1
 40
-0.6
176
     1
 40
-30.0
176
     1
 62
     7
420
 16777215
176
     1
 90
        1
176
     1
 90
        4
176
     1
 62
     7
176
     1
 62
   257
176
     1
 90
        1
176
     1
 90
        1
176
     1
 40
1.0
176
     1
 90
        8
176
     1
 62
     7
176
     1
 40
1.0
176
     1
 90
        1
176
     1
 90
        6
176
     1
 90
        2
176
     1
 62
     7
176
     1
 90
        5
176
     1
 90
        0
176
     1
 90
        0
176
     1
290
     0
176
     1
 90
        1
176
     1
 40
0.0
176
     1
 90
        0
176
     1
290
     0
176
     1
290
     1
176
     1
290
     1
176
     1
290
     0
176
     1
290
     0
176
     1
290
     0
176
     1
290
     0
176
     1
290
     0
176
     1
290
     0
176
     1
 90
       50
176
     1
 40
0.0
176
     1
 40
1.0
176
     1
 90
        0
176
     1
 62
    18
420
        0
176
     1
 90
       50
176
     1
 90
        3
176
     1
 62
     5
420
      255
176
     1
290
     0
176
     1
 90
       50
176
     1
 90
       50
176
     1
 90
       50
176
     1
290
     0
176
     1
 90
       50
176
     1
 62
   256
176
     0
 40
1.0
176
     0
 90
        2
176
     1
  1
strokes_ogs.tif
176
     1
290
     0
176
     1
 40
1.0
176
     1
 40
1.0
176
     1
  0
VISUALSTYLE
  5
2B
102
{ACAD_REACTORS
330
2A
102
}
330
2A
100
AcDbVisualStyle
  2
Flat
 70
     0
177
     3
291
     1
 70
    58
 90
        2
176
     1
 90
        1
176
     1
 90
        1
176
     1
 90
        2
176
     1
 40
-0.6
176
     1
 40
30.0
176
     1
 62
     7
420
 16777215
176
     1
 90
        0
176
     1
 90
        4
176
     1
 62
     7
176
     1
 62
   257
176
     1
 90
        1
176
     1
 90
        1
176
     1
 40
1.0
176
     1
 90
        8
176
     1
 62
     7
176
     1
 40
1.0
176
     1
 90
        1
176
     1
 90
        6
176
     1
 90
        2
176
     1
 62
     7
176
     1
 90
        5
176
     1
 90
        0
176
     1
 90
        0
176
     1
290
     0
176
     1
 90
       13
176
     1
 40
0.0
176
     1
 90
        0
176
     1
290
     0
176
     1
290
     1
176
     1
290
     1
176
     1
290
     0
176
     1
290
     0
176
     1
290
     0
176
     1
290
     0
176
     1
290
     0
176
     1
290
     0
176
     1
 90
       50
176
     1
 40
0.0
176
     1
 40
1.0
176
     1
 90
        0
176
     1
 62
    18
420
        0
176
     1
 90
       50
176
     1
 90
        3
176
     1
 62
     5
420
      255
176
     1
290
     0
176
     1
 90
       50
176
     1
 90
       50
176
     1
 90
       50
176
     1
290
     0
176
     1
 90
       50
176
     1
 62
   256
176
     0
 40
1.0
176
     0
 90
        2
176
     1
  1
strokes_ogs.tif
176
     1
290
     0
176
     1
 40
1.0
176
     1
 40
1.0
176
     1
  0
VISUALSTYLE
  5
2C
102
{ACAD_REACTORS
330
2A
102
}
330
2A
100
AcDbVisualStyle
  2
FlatWithEdges
 70
     1
177
     3
291
     1
 70
    58
 90
        2
176
     1
 90
        1
176
     1
 90
        1
176
     1
 90
        2
176
     1
 40
-0.6
176
     1
 40
30.0
176
     1
 62
     7
420
 16777215
176
     1
 90
        1
176
     1
 90
        4
176
     1
 62
     7
176
     1
 62
   257
176
     1
 90
        1
176
     1
 90
        1
176
     1
 40
1.0
176
     1
 90
        0
176
     1
 62
   257
176
     1
 40
1.0
176
     1
 90
        1
176
     1
 90
        6
176
     1
 90
        2
176
     1
 62
     7
176
     1
 90
        5
176
     1
 90
        0
176
     1
 90
        0
176
     1
290
     0
176
     1
 90
       13
176
     1
 40
0.0
176
     1
 90
        0
176
     1
290
     0
176
     1
290
     1
176
     1
290
     1
176
     1
290
     0
176
     1
290
     0
176
     1
290
     0
176
     1
290
     0
176
     1
290
     0
176
     1
290
     0
176
     1
 90
       50
176
     1
 40
0.0
176
     1
 40
1.0
176
     1
 90
        0
176
     1
 62
    18
420
        0
176
     1
 90
       50
176
     1
 90
        3
176
     1
 62
     5
420
      255
176
     1
290
     0
176
     1
 90
       50
176
     1
 90
       50
176
     1
 90
       50
176
     1
290
     0
176
     1
 90
       50
176
     1
 62
   256
176
     0
 40
1.0
176
     0
 90
        2
176
     1
  1
strokes_ogs.tif
176
     1
290
     0
176
     1
 40
1.0
176
     1
 40
1.0
176
     1
  0
VISUALSTYLE
  5
2D
102
{ACAD_REACTORS
330
2A
102
}
330
2A
100
AcDbVisualStyle
  2
Gouraud
 70
     2
177
     3
291
     1
 70
    58
 90
        2
176
     1
 90
        2
176
     1
 90
        1
176
     1
 90
        2
176
     1
 40
-0.6
176
     1
 40
30.0
176
     1
 62
     7
420
 16777215
176
     1
 90
        0
176
     1
 90
        4
176
     1
 62
     7
176
     1
 62
   257
176
     1
 90
        1
176
     1
 90
        1
176
     1
 40
1.0
176
     1
 90
        0
176
     1
 62
     7
176
     1
 40
1.0
176
     1
 90
        1
176
     1
 90
        6
176
     1
 90
        2
176
     1
 62
     7
176
     1
 90
        5
176
     1
 90
        0
176
     1
 90
        0
176
     1
290
     0
176
     1
 90
       13
176
     1
 40
0.0
176
     1
 90
        0
176
     1
290
     0
176
     1
290
     1
176
     1
290
     1
176
     1
290
     0
176
     1
290
     0
176
     1
290
     0
176
     1
290
     0
176
     1
290
     0
176
     1
290
     0
176
     1
 90
       50
176
     1
 40
0.0
176
     1
 40
1.0
176
     1
 90
        0
176
     1
 62
    18
420
        0
176
     1
 90
       50
176
     1
 90
        3
176
     1
 62
     5
420
      255
176
     1
290
     0
176
     1
 90
       50
176
     1
 90
       50
176
     1
 90
       50
176
     1
290
     0
176
     1
 90
       50
176
     1
 62
   256
176
     0
 40
1.0
176
     0
 90
        2
176
     1
  1
strokes_ogs.tif
176
     1
290
     0
176
     1
 40
1.0
176
     1
 40
1.0
176
     1
  0
VISUALSTYLE
  5
2E
102
{ACAD_REACTORS
330
2A
102
}
330
2A
100
AcDbVisualStyle
  2
GouraudWithEdges
 70
     3
177
     3
291
     1
 70
    58
 90
        2
176
     1
 90
        2
176
     1
 90
        1
176
     1
 90
        2
176
     1
 40
-0.6
176
     1
 40
30.0
176
     1
 62
     7
420
 16777215
176
     1
 90
        1
176
     1
 90
        4
176
     1
 62
     7
176
     1
 62
   257
176
     1
 90
        1
176
     1
 90
        1
176
     1
 40
1.0
176
     1
 90
        0
176
     1
 62
   257
176
     1
 40
1.0
176
     1
 90
        1
176
     1
 90
        6
176
     1
 90
        2
176
     1
 62
     7
176
     1
 90
        5
176
     1
 90
        0
176
     1
 90
        0
176
     1
290
     0
176
     1
 90
       13
176
     1
 40
0.0
176
     1
 90
        0
176
     1
290
     0
176
     1
290
     1
176
     1
290
     1
176
     1
290
     0
176
     1
290
     0
176
     1
290
     0
176
     1
290
     0
176
     1
290
     0
176
     1
290
     0
176
     1
 90
       50
176
     1
 40
0.0
176
     1
 40
1.0
176
     1
 90
        0
176
     1
 62
    18
420
        0
176
     1
 90
       50
176
     1
 90
        3
176
     1
 62
     5
420
      255
176
     1
290
     0
176
     1
 90
       50
176
     1
 90
       50
176
     1
 90
       50
176
     1
290
     0
176
     1
 90
       50
176
     1
 62
   256
176
     0
 40
1.0
176
     0
 90
        2
176
     1
  1
strokes_ogs.tif
176
     1
290
     0
176
     1
 40
1.0
176
     1
 40
1.0
176
     1
  0
VISUALSTYLE
  5
77
102
{ACAD_REACTORS
330
2A
102
}
330
2A
100
AcDbVisualStyle
  2
Hidden
 70
     6
177
     3
291
     0
 70
    58
 90
        1
176
     1
 90
        2
176
     1
 90
        2
176
     1
 90
        0
176
     1
 40
0.6
176
     1
 40
30.0
176
     1
 62
     7
420
 16777215
176
     1
 90
        2
176
     1
 90
        2
176
     1
 62
     7
176
     1
 62
   257
176
     1
 90
        2
176
     1
 90
        1
176
     1
 40
40.0
176
     1
 90
        0
176
     1
 62
   257
176
     1
 40
1.0
176
     1
 90
        1
176
     1
 90
        6
176
     1
 90
        2
176
     1
 62
     7
176
     1
 90
        3
176
     1
 90
        0
176
     1
 90
        0
176
     1
290
     0
176
     1
 90
        1
176
     1
 40
0.0
176
     1
 90
        0
176
     1
290
     0
176
     1
290
     1
176
     1
290
     1
176
     1
290
     0
176
     1
290
     0
176
     1
290
     0
176
     1
290
     0
176
     1
290
     0
176
     1
290
     0
176
     1
 90
       50
176
     1
 40
0.0
176
     1
 40
1.0
176
     1
 90
        0
176
     1
 62
    18
420
        0
176
     1
 90
       50
176
     1
 90
        3
176
     1
 62
     5
420
      255
176
     1
290
     0
176
     1
 90
       50
176
     1
 90
       50
176
     1
 90
       50
176
     1
290
     0
176
     1
 90
       50
176
     1
 62
   256
176
     0
 40
1.0
176
     0
 90
        2
176
     1
  1
strokes_ogs.tif
176
     1
290
     0
176
     1
 40
1.0
176
     1
 40
1.0
176
     1
  0
VISUALSTYLE
  5
78
102
{ACAD_REACTORS
330
2A
102
}
330
2A
100
AcDbVisualStyle
  2
JitterOff
 70
    20
177
     3
291
     1
 70
    58
 90
        2
176
     0
 90
        2
176
     0
 90
        0
176
     0
 90
        0
176
     0
 40
0.6
176
     0
 40
30.0
176
     0
 62
     7
420
 16777215
176
     0
 90
        1
176
     0
 90
        4
176
     0
 62
     7
176
     0
 62
   257
176
     0
 90
        1
176
     0
 90
        1
176
     0
 40
1.0
176
     0
 90
       10
176
     2
 62
     7
176
     0
 40
1.0
176
     0
 90
        1
176
     0
 90
        6
176
     0
 90
        2
176
     0
 62
     7
176
     0
 90
        5
176
     0
 90
        0
176
     0
 90
        0
176
     0
290
     0
176
     0
 90
        1
176
     0
 40
0.0
176
     0
 90
        0
176
     0
290
     0
176
     0
290
     1
176
     0
290
     1
176
     0
290
     0
176
     0
290
     0
176
     0
290
     0
176
     0
290
     0
176
     0
290
     0
176
     0
290
     0
176
     0
 90
       50
176
     0
 40
0.0
176
     0
 40
1.0
176
     0
 90
        0
176
     0
 62
    18
420
        0
176
     0
 90
       50
176
     0
 90
        3
176
     0
 62
     5
420
      255
176
     0
290
     0
176
     0
 90
       50
176
     0
 90
       50
176
     0
 90
       50
176
     0
290
     0
176
     0
 90
       50
176
     0
 62
   256
176
     0
 40
1.0
176
     0
 90
        2
176
     0
  1
strokes_ogs.tif
176
     0
290
     0
176
     0
 40
1.0
176
     0
 40
1.0
176
     0
  0
VISUALSTYLE
  5
38
102
{ACAD_REACTORS
330
2A
102
}
330
2A
100
AcDbVisualStyle
  2
Linepattern
 70
    14
177
     3
291
     1
 70
    58
 90
        2
176
     1
 90
        2
176
     1
 90
        0
176
     1
 90
        0
176
     1
 40
-0.6
176
     1
 40
-30.0
176
     1
 62
     7
420
 16777215
176
     1
 90
        1
176
     1
 90
        4
176
     1
 62
     7
176
     1
 62
   257
176
     1
 90
        7
176
     1
 90
        7
176
     1
 40
1.0
176
     1
 90
        8
176
     1
 62
     7
176
     1
 40
1.0
176
     1
 90
        1
176
     1
 90
        6
176
     1
 90
        2
176
     1
 62
     7
176
     1
 90
        5
176
     1
 90
        0
176
     1
 90
        0
176
     1
290
     0
176
     1
 90
        1
176
     1
 40
0.0
176
     1
 90
        0
176
     1
290
     0
176
     1
290
     1
176
     1
290
     1
176
     1
290
     0
176
     1
290
     0
176
     1
290
     0
176
     1
290
     0
176
     1
290
     0
176
     1
290
     0
176
     1
 90
       50
176
     1
 40
0.0
176
     1
 40
1.0
176
     1
 90
        0
176
     1
 62
    18
420
        0
176
     1
 90
       50
176
     1
 90
        3
176
     1
 62
     5
420
      255
176
     1
290
     0
176
     1
 90
       50
176
     1
 90
       50
176
     1
 90
       50
176
     1
290
     0
176
     1
 90
       50
176
     1
 62
   256
176
     0
 40
1.0
176
     0
 90
        2
176
     1
  1
strokes_ogs.tif
176
     1
290
     0
176
     1
 40
1.0
176
     1
 40
1.0
176
     1
  0
VISUALSTYLE
  5
79
102
{ACAD_REACTORS
330
2A
102
}
330
2A
100
AcDbVisualStyle
  2
OverhangOff
 70
    21
177
     3
291
     1
 70
    58
 90
        2
176
     0
 90
        2
176
     0
 90
        0
176
     0
 90
        0
176
     0
 40
0.6
176
     0
 40
30.0
176
     0
 62
     7
420
 16777215
176
     0
 90
        1
176
     0
 90
        4
176
     0
 62
     7
176
     0
 62
   257
176
     0
 90
        1
176
     0
 90
        1
176
     0
 40
1.0
176
     0
 90
        9
176
     2
 62
     7
176
     0
 40
1.0
176
     0
 90
        1
176
     0
 90
        6
176
     0
 90
        2
176
     0
 62
     7
176
     0
 90
        5
176
     0
 90
        0
176
     0
 90
        0
176
     0
290
     0
176
     0
 90
        1
176
     0
 40
0.0
176
     0
 90
        0
176
     0
290
     0
176
     0
290
     1
176
     0
290
     1
176
     0
290
     0
176
     0
290
     0
176
     0
290
     0
176
     0
290
     0
176
     0
290
     0
176
     0
290
     0
176
     0
 90
       50
176
     0
 40
0.0
176
     0
 40
1.0
176
     0
 90
        0
176
     0
 62
    18
420
        0
176
     0
 90
       50
176
     0
 90
        3
176
     0
 62
     5
420
      255
176
     0
290
     0
176
     0
 90
       50
176
     0
 90
       50
176
     0
 90
       50
176
     0
290
     0
176
     0
 90
       50
176
     0
 62
   256
176
     0
 40
1.0
176
     0
 90
        2
176
     0
  1
strokes_ogs.tif
176
     0
290
     0
176
     0
 40
1.0
176
     0
 40
1.0
176
     0
  0
VISUALSTYLE
  5
33
102
{ACAD_REACTORS
330
2A
102
}
330
2A
100
AcDbVisualStyle
  2
Realistic
 70
     8
177
     3
291
     0
 70
    58
 90
        2
176
     1
 90
        2
176
     1
 90
        0
176
     1
 90
        0
176
     1
 40
-0.6
176
     1
 40
-30.0
176
     1
 62
     7
420
 16777215
176
     1
 90
        1
176
     1
 90
        0
176
     1
 62
     7
176
     1
 62
   257
176
     1
 90
        1
176
     1
 90
        1
176
     1
 40
1.0
176
     1
 90
        8
176
     1
 62
     8
420
  7895160
176
     1
 40
1.0
176
     1
 90
        1
176
     1
 90
        6
176
     1
 90
        2
176
     1
 62
     7
176
     1
 90
        5
176
     1
 90
        0
176
     1
 90
        0
176
     1
290
     0
176
     1
 90
       13
176
     1
 40
0.0
176
     1
 90
        0
176
     1
290
     0
176
     1
290
     1
176
     1
290
     1
176
     1
290
     0
176
     1
290
     0
176
     1
290
     0
176
     1
290
     0
176
     1
290
     0
176
     1
290
     0
176
     1
 90
       50
176
     1
 40
0.0
176
     1
 40
1.0
176
     1
 90
        0
176
     1
 62
    18
420
        0
176
     1
 90
       50
176
     1
 90
        3
176
     1
 62
     5
420
      255
176
     1
290
     0
176
     1
 90
       50
176
     1
 90
       50
176
     1
 90
       50
176
     1
290
     0
176
     1
 90
       50
176
     1
 62
   256
176
     0
 40
1.0
176
     0
 90
        2
176
     1
  1
strokes_ogs.tif
176
     1
290
     0
176
     1
 40
1.0
176
     1
 40
1.0
176
     1
  0
VISUALSTYLE
  5
7F
102
{ACAD_REACTORS
330
2A
102
}
330
2A
100
AcDbVisualStyle
  2
Shaded
 70
    27
177
     3
291
     0
 70
    58
 90
        2
176
     1
 90
        2
176
     1
 90
        1
176
     1
 90
        2
176
     1
 40
0.6
176
     1
 40
30.0
176
     1
 62
     7
420
 16777215
176
     1
 90
        0
176
     1
 90
        4
176
     1
 62
     7
176
     1
 62
   257
176
     1
 90
        1
176
     1
 90
        1
176
     1
 40
1.0
176
     1
 90
        8
176
     1
 62
   257
176
     1
 40
1.0
176
     1
 90
        1
176
     1
 90
        6
176
     1
 90
        2
176
     1
 62
     8
420
  7895160
176
     1
 90
        3
176
     1
 90
        0
176
     1
 90
        0
176
     1
290
     0
176
     1
 90
        5
176
     1
 40
0.0
176
     1
 90
        0
176
     1
290
     0
176
     1
290
     1
176
     1
290
     1
176
     1
290
     0
176
     1
290
     0
176
     1
290
     0
176
     1
290
     0
176
     1
290
     0
176
     1
290
     0
176
     1
 90
       50
176
     1
 40
0.0
176
     1
 40
1.0
176
     1
 90
        0
176
     1
 62
    18
420
        0
176
     1
 90
       50
176
     1
 90
        3
176
     1
 62
     5
420
      255
176
     1
290
     0
176
     1
 90
       50
176
     1
 90
       50
176
     1
 90
       50
176
     1
290
     0
176
     1
 90
       50
176
     1
 62
   256
176
     0
 40
1.0
176
     0
 90
        2
176
     1
  1
strokes_ogs.tif
176
     1
290
     0
176
     1
 40
1.0
176
     1
 40
1.0
176
     1
  0
VISUALSTYLE
  5
7E
102
{ACAD_REACTORS
330
2A
102
}
330
2A
100
AcDbVisualStyle
  2
Shaded with edges
 70
    26
177
     3
291
     0
 70
    58
 90
        2
176
     1
 90
        2
176
     1
 90
        1
176
     1
 90
        2
176
     1
 40
0.6
176
     1
 40
30.0
176
     1
 62
     7
420
 16777215
176
     1
 90
        1
176
     1
 90
       10
176
     1
 62
     7
176
     1
 62
   257
176
     1
 90
        2
176
     1
 90
        1
176
     1
 40
1.0
176
     1
 90
        8
176
     1
 62
   257
176
     1
 40
1.0
176
     1
 90
        1
176
     1
 90
        6
176
     1
 90
        2
176
     1
 62
     7
176
     1
 90
        3
176
     1
 90
        0
176
     1
 90
        0
176
     1
290
     0
176
     1
 90
        5
176
     1
 40
0.0
176
     1
 90
        0
176
     1
290
     0
176
     1
290
     1
176
     1
290
     1
176
     1
290
     0
176
     1
290
     0
176
     1
290
     0
176
     1
290
     0
176
     1
290
     0
176
     1
290
     0
176
     1
 90
       50
176
     1
 40
0.0
176
     1
 40
1.0
176
     1
 90
        0
176
     1
 62
    18
420
        0
176
     1
 90
       50
176
     1
 90
        3
176
     1
 62
     5
420
      255
176
     1
290
     0
176
     1
 90
       50
176
     1
 90
       50
176
     1
 90
       50
176
     1
290
     0
176
     1
 90
       50
176
     1
 62
   256
176
     0
 40
1.0
176
     0
 90
        2
176
     1
  1
strokes_ogs.tif
176
     1
290
     0
176
     1
 40
1.0
176
     1
 40
1.0
176
     1
  0
VISUALSTYLE
  5
7B
102
{ACAD_REACTORS
330
2A
102
}
330
2A
100
AcDbVisualStyle
  2
Shades of Gray
 70
    23
177
     3
291
     0
 70
    58
 90
        2
176
     1
 90
        2
176
     1
 90
        3
176
     1
 90
        0
176
     1
 40
0.6
176
     1
 40
30.0
176
     1
 62
     7
420
 16777215
176
     1
 90
        2
176
     1
 90
        2
176
     1
 62
     7
176
     1
 62
     7
176
     1
 90
        1
176
     1
 90
        1
176
     1
 40
40.0
176
     1
 90
        8
176
     1
 62
     7
176
     1
 40
1.0
176
     1
 90
        1
176
     1
 90
        6
176
     1
 90
        2
176
     1
 62
     7
176
     1
 90
        3
176
     1
 90
        0
176
     1
 90
        0
176
     1
290
     0
176
     1
 90
        1
176
     1
 40
0.0
176
     1
 90
        0
176
     1
290
     0
176
     1
290
     1
176
     1
290
     1
176
     1
290
     0
176
     1
290
     0
176
     1
290
     0
176
     1
290
     0
176
     1
290
     0
176
     1
290
     0
176
     1
 90
       50
176
     1
 40
0.0
176
     1
 40
1.0
176
     1
 90
        0
176
     1
 62
    18
420
        0
176
     1
 90
       50
176
     1
 90
        3
176
     1
 62
     5
420
      255
176
     1
290
     0
176
     1
 90
       50
176
     1
 90
       50
176
     1
 90
       50
176
     1
290
     0
176
     1
 90
       50
176
     1
 62
   256
176
     0
 40
1.0
176
     0
 90
        2
176
     1
  1
strokes_ogs.tif
176
     1
290
     0
176
     1
 40
1.0
176
     1
 40
1.0
176
     1
  0
VISUALSTYLE
  5
7C
102
{ACAD_REACTORS
330
2A
102
}
330
2A
100
AcDbVisualStyle
  2
Sketchy
 70
    24
177
     3
291
     0
 70
    58
 90
        1
176
     1
 90
        2
176
     1
 90
        2
176
     1
 90
        0
176
     1
 40
0.6
176
     1
 40
30.0
176
     1
 62
     7
420
 16777215
176
     1
 90
        2
176
     1
 90
        2
176
     1
 62
     7
176
     1
 62
     7
176
     1
 90
        1
176
     1
 90
        1
176
     1
 40
40.0
176
     1
 90
       11
176
     1
 62
     7
176
     1
 40
1.0
176
     1
 90
        1
176
     1
 90
        6
176
     1
 90
        2
176
     1
 62
     7
176
     1
 90
        6
176
     1
 90
        0
176
     1
 90
        0
176
     1
290
     0
176
     1
 90
        1
176
     1
 40
0.0
176
     1
 90
        0
176
     1
290
     0
176
     1
290
     1
176
     1
290
     1
176
     1
290
     0
176
     1
290
     0
176
     1
290
     0
176
     1
290
     0
176
     1
290
     0
176
     1
290
     0
176
     1
 90
       50
176
     1
 40
0.0
176
     1
 40
1.0
176
     1
 90
        0
176
     1
 62
    18
420
        0
176
     1
 90
       50
176
     1
 90
        3
176
     1
 62
     5
420
      255
176
     1
290
     0
176
     1
 90
       50
176
     1
 90
       50
176
     1
 90
       50
176
     1
290
     0
176
     1
 90
       50
176
     1
 62
   256
176
     0
 40
1.0
176
     0
 90
        2
176
     1
  1
strokes_ogs.tif
176
     1
290
     0
176
     1
 40
1.0
176
     1
 40
1.0
176
     1
  0
VISUALSTYLE
  5
37
102
{ACAD_REACTORS
330
2A
102
}
330
2A
100
AcDbVisualStyle
  2
Thicken
 70
    13
177
     3
291
     1
 70
    58
 90
        2
176
     1
 90
        2
176
     1
 90
        0
176
     1
 90
        0
176
     1
 40
-0.6
176
     1
 40
-30.0
176
     1
 62
     7
420
 16777215
176
     1
 90
        1
176
     1
 90
        4
176
     1
 62
     7
176
     1
 62
   257
176
     1
 90
        1
176
     1
 90
        1
176
     1
 40
1.0
176
     1
 90
       12
176
     1
 62
     7
176
     1
 40
1.0
176
     1
 90
        1
176
     1
 90
        6
176
     1
 90
        2
176
     1
 62
     7
176
     1
 90
        5
176
     1
 90
        0
176
     1
 90
        0
176
     1
290
     0
176
     1
 90
        1
176
     1
 40
0.0
176
     1
 90
        0
176
     1
290
     0
176
     1
290
     1
176
     1
290
     1
176
     1
290
     0
176
     1
290
     0
176
     1
290
     0
176
     1
290
     0
176
     1
290
     0
176
     1
290
     0
176
     1
 90
       50
176
     1
 40
0.0
176
     1
 40
1.0
176
     1
 90
        0
176
     1
 62
    18
420
        0
176
     1
 90
       50
176
     1
 90
        3
176
     1
 62
     5
420
      255
176
     1
290
     0
176
     1
 90
       50
176
     1
 90
       50
176
     1
 90
       50
176
     1
290
     0
176
     1
 90
       50
176
     1
 62
   256
176
     0
 40
1.0
176
     0
 90
        2
176
     1
  1
strokes_ogs.tif
176
     1
290
     0
176
     1
 40
1.0
176
     1
 40
1.0
176
     1
  0
VISUALSTYLE
  5
76
102
{ACAD_REACTORS
330
2A
102
}
330
2A
100
AcDbVisualStyle
  2
Wireframe
 70
     5
177
     3
291
     0
 70
    58
 90
        0
176
     1
 90
        2
176
     1
 90
        0
176
     1
 90
        0
176
     1
 40
0.6
176
     1
 40
30.0
176
     1
 62
     7
420
 16777215
176
     1
 90
        1
176
     1
 90
        4
176
     1
 62
     7
176
     1
 62
   257
176
     1
 90
        1
176
     1
 90
        1
176
     1
 40
1.0
176
     1
 90
        0
176
     1
 62
   257
176
     1
 40
1.0
176
     1
 90
        1
176
     1
 90
        6
176
     1
 90
        2
176
     1
 62
     7
176
     1
 90
        3
176
     1
 90
        0
176
     1
 90
        0
176
     1
290
     0
176
     1
 90
        1
176
     1
 40
0.0
176
     1
 90
        0
176
     1
290
     0
176
     1
290
     1
176
     1
290
     1
176
     1
290
     0
176
     1
290
     0
176
     1
290
     0
176
     1
290
     0
176
     1
290
     0
176
     1
290
     0
176
     1
 90
       50
176
     1
 40
0.0
176
     1
 40
1.0
176
     1
 90
        0
176
     1
 62
    18
420
        0
176
     1
 90
       50
176
     1
 90
        3
176
     1
 62
     5
420
      255
176
     1
290
     0
176
     1
 90
       50
176
     1
 90
       50
176
     1
 90
       50
176
     1
290
     0
176
     1
 90
       50
176
     1
 62
   256
176
     0
 40
1.0
176
     0
 90
        2
176
     1
  1
strokes_ogs.tif
176
     1
290
     0
176
     1
 40
1.0
176
     1
 40
1.0
176
     1
  0
VISUALSTYLE
  5
7D
102
{ACAD_REACTORS
330
2A
102
}
330
2A
100
AcDbVisualStyle
  2
X-Ray
 70
    25
177
     3
291
     0
 70
    58
 90
        2
176
     1
 90
        2
176
     1
 90
        1
176
     1
 90
        1
176
     1
 40
0.5
176
     1
 40
30.0
176
     1
 62
     7
420
 16777215
176
     1
 90
        1
176
     1
 90
        0
176
     1
 62
     7
176
     1
 62
   257
176
     1
 90
        1
176
     1
 90
        1
176
     1
 40
1.0
176
     1
 90
        8
176
     1
 62
     7
176
     1
 40
1.0
176
     1
 90
        1
176
     1
 90
        6
176
     1
 90
        2
176
     1
 62
     7
176
     1
 90
        3
176
     1
 90
        0
176
     1
 90
        0
176
     1
290
     0
176
     1
 90
       13
176
     1
 40
0.0
176
     1
 90
        0
176
     1
290
     0
176
     1
290
     1
176
     1
290
     1
176
     1
290
     0
176
     1
290
     0
176
     1
290
     0
176
     1
290
     0
176
     1
290
     0
176
     1
290
     0
176
     1
 90
       50
176
     1
 40
0.0
176
     1
 40
1.0
176
     1
 90
        0
176
     1
 62
    18
420
        0
176
     1
 90
       50
176
     1
 90
        3
176
     1
 62
     5
420
      255
176
     1
290
     0
176
     1
 90
       50
176
     1
 90
       50
176
     1
 90
       50
176
     1
290
     0
176
     1
 90
       50
176
     1
 62
   256
176
     0
 40
1.0
176
     0
 90
        2
176
     1
  1
strokes_ogs.tif
176
     1
290
     0
176
     1
 40
1.0
176
     1
 40
1.0
176
     1
  0
DICTIONARYVAR
  5
62
102
{ACAD_REACTORS
330
3D
102
}
330
3D
100
DictionaryVariables
280
     0
  1
1:1
  0
DICTIONARYVAR
  5
172
102
{ACAD_REACTORS
330
3D
102
}
330
3D
100
DictionaryVariables
280
     0
  1
Standard
  0
DICTIONARYVAR
  5
3E
102
{ACAD_REACTORS
330
3D
102
}
330
3D
100
DictionaryVariables
280
     0
  1
Standard
  0
DICTIONARYVAR
  5
D5
102
{ACAD_REACTORS
330
3D
102
}
330
3D
100
DictionaryVariables
280
     0
  1
ByLayer
  0
DICTIONARYVAR
  5
6F
102
{ACAD_REACTORS
330
3D
102
}
330
3D
100
DictionaryVariables
280
     0
  1
0
  0
DICTIONARYVAR
  5
70
102
{ACAD_REACTORS
330
3D
102
}
330
3D
100
DictionaryVariables
280
     0
  1
0
  0
XRECORD
  5
227D
102
{ACAD_REACTORS
330
BF
102
}
330
BF
100
AcDbXrecord
280
     1
 91
     1023
301

290
     0
302
floor 0 walls
330
10
 90
        9
 62
     7
370
    -3
331
16
  1
Color_7
330
C1
 90
        8
 62
   215
370
    -3
331
16
  1
Color_215
330
9C2
 90
        8
 62
   220
370
    -3
331
16
  1
Color_220
330
C5A
 90
        8
 62
   230
370
    -3
331
16
  1
Color_230
330
C5B
 90
        8
 62
   190
370
    -3
331
16
  1
Color_190
330
C70
 90
        9
 62
     7
370
    -3
331
16
  1
Color_7
330
C71
 90
        9
 62
     7
370
    -3
331
16
  1
Color_7
330
C72
 90
        9
 62
     7
370
    -3
331
16
  1
Color_7
330
E36
 90
        8
 62
     2
370
    -3
331
16
  1
Color_2
330
E37
 90
        8
 62
     2
370
    -3
331
16
  1
Color_2
330
E38
 90
        8
 62
     7
370
    -3
331
16
  1
Color_7
330
E9A
 90
        8
 62
     7
370
    -3
331
16
  1
Color_7
330
EA2
 90
        8
 62
     5
370
    -3
331
16
  1
Color_5
330
EA3
 90
        8
 62
     5
370
    -3
331
16
  1
Color_5
330
EA4
 90
        8
 62
     5
370
    -3
331
16
  1
Color_5
330
EA5
 90
        8
 62
     5
370
    -3
331
16
  1
Color_5
330
FFA
 90
        8
 62
   230
370
    -3
331
16
  1
Color_230
330
FFB
 90
        8
 62
   230
370
    -3
331
16
  1
Color_230
330
FFC
 90
        8
 62
   230
370
    -3
331
16
  1
Color_230
330
FFD
 90
        8
 62
   230
370
    -3
331
16
  1
Color_230
330
182C
 90
        8
 62
     4
370
    -3
331
16
  1
Color_4
330
20B2
 90
        8
 62
     7
370
    -3
331
16
  1
Color_7
330
2237
 90
        8
 62
     4
370
    -3
331
16
  1
Color_4
  0
XRECORD
  5
2283
102
{ACAD_REACTORS
330
BF
102
}
330
BF
100
AcDbXrecord
280
     1
 91
     1023
301

290
     0
302
floor 0 routes
330
10
 90
        9
 62
     7
370
    -3
331
16
  1
Color_7
330
C1
 90
        8
 62
   215
370
    -3
331
16
  1
Color_215
330
9C2
 90
        8
 62
   220
370
    -3
331
16
  1
Color_220
330
C5A
 90
        8
 62
   230
370
    -3
331
16
  1
Color_230
330
C5B
 90
        8
 62
   190
370
    -3
331
16
  1
Color_190
330
C70
 90
        9
 62
     7
370
    -3
331
16
  1
Color_7
330
C71
 90
        9
 62
     7
370
    -3
331
16
  1
Color_7
330
C72
 90
        9
 62
     7
370
    -3
331
16
  1
Color_7
330
E36
 90
        8
 62
     2
370
    -3
331
16
  1
Color_2
330
E37
 90
        8
 62
     2
370
    -3
331
16
  1
Color_2
330
E38
 90
        8
 62
     7
370
    -3
331
16
  1
Color_7
330
E9A
 90
        8
 62
     7
370
    -3
331
16
  1
Color_7
330
EA2
 90
        8
 62
     5
370
    -3
331
16
  1
Color_5
330
EA3
 90
        8
 62
     5
370
    -3
331
16
  1
Color_5
330
EA4
 90
        8
 62
     5
370
    -3
331
16
  1
Color_5
330
EA5
 90
        8
 62
     5
370
    -3
331
16
  1
Color_5
330
FFA
 90
        8
 62
   230
370
    -3
331
16
  1
Color_230
330
FFB
 90
        8
 62
   230
370
    -3
331
16
  1
Color_230
330
FFC
 90
        8
 62
   230
370
    -3
331
16
  1
Color_230
330
FFD
 90
        8
 62
   230
370
    -3
331
16
  1
Color_230
330
182C
 90
        8
 62
     4
370
    -3
331
16
  1
Color_4
330
20B2
 90
        8
 62
     7
370
    -3
331
16
  1
Color_7
330
2237
 90
        8
 62
     4
370
    -3
331
16
  1
Color_4
  0
XRECORD
  5
2286
102
{ACAD_REACTORS
330
BF
102
}
330
BF
100
AcDbXrecord
280
     1
 91
     1023
301

290
     0
302
floor 0 walls
330
10
 90
        9
 62
     7
370
    -3
331
16
  1
Color_7
330
C1
 90
        8
 62
   215
370
    -3
331
16
  1
Color_215
330
9C2
 90
        8
 62
   220
370
    -3
331
16
  1
Color_220
330
C5A
 90
        8
 62
   230
370
    -3
331
16
  1
Color_230
330
C5B
 90
        8
 62
   190
370
    -3
331
16
  1
Color_190
330
C70
 90
        9
 62
     7
370
    -3
331
16
  1
Color_7
330
C71
 90
        9
 62
     7
370
    -3
331
16
  1
Color_7
330
C72
 90
        9
 62
     7
370
    -3
331
16
  1
Color_7
330
E36
 90
        8
 62
     2
370
    -3
331
16
  1
Color_2
330
E37
 90
        8
 62
     2
370
    -3
331
16
  1
Color_2
330
E38
 90
        8
 62
     7
370
    -3
331
16
  1
Color_7
330
E9A
 90
        8
 62
     7
370
    -3
331
16
  1
Color_7
330
EA2
 90
        8
 62
     5
370
    -3
331
16
  1
Color_5
330
EA3
 90
        8
 62
     5
370
    -3
331
16
  1
Color_5
330
EA4
 90
        8
 62
     5
370
    -3
331
16
  1
Color_5
330
EA5
 90
        8
 62
     5
370
    -3
331
16
  1
Color_5
330
FFA
 90
        8
 62
   230
370
    -3
331
16
  1
Color_230
330
FFB
 90
        8
 62
   230
370
    -3
331
16
  1
Color_230
330
FFC
 90
        8
 62
   230
370
    -3
331
16
  1
Color_230
330
FFD
 90
        8
 62
   230
370
    -3
331
16
  1
Color_230
330
182C
 90
        8
 62
     4
370
    -3
331
16
  1
Color_4
330
20B2
 90
        8
 62
     7
370
    -3
331
16
  1
Color_7
330
2237
 90
        8
 62
     4
370
    -3
331
16
  1
Color_4
  0
XRECORD
  5
21AC
102
{ACAD_REACTORS
330
BF
102
}
330
BF
100
AcDbXrecord
280
     1
 91
     1023
301

290
     0
302
floor 1 keepouts
330
10
 90
        9
 62
     7
370
    -3
331
16
  1
Color_7
330
C1
 90
        8
 62
   215
370
    -3
331
16
  1
Color_215
330
9C2
 90
        8
 62
   220
370
    -3
331
16
  1
Color_220
330
C5A
 90
        8
 62
   230
370
    -3
331
16
  1
Color_230
330
C5B
 90
        8
 62
   190
370
    -3
331
16
  1
Color_190
330
C70
 90
        9
 62
     7
370
    -3
331
16
  1
Color_7
330
C71
 90
        9
 62
     7
370
    -3
331
16
  1
Color_7
330
C72
 90
        9
 62
     7
370
    -3
331
16
  1
Color_7
330
E36
 90
        8
 62
     2
370
    -3
331
16
  1
Color_2
330
E37
 90
        8
 62
     2
370
    -3
331
16
  1
Color_2
330
E38
 90
        8
 62
     7
370
    -3
331
16
  1
Color_7
330
E9A
 90
        8
 62
     7
370
    -3
331
16
  1
Color_7
330
EA2
 90
        8
 62
     5
370
    -3
331
16
  1
Color_5
330
EA3
 90
        8
 62
     5
370
    -3
331
16
  1
Color_5
330
EA4
 90
        8
 62
     5
370
    -3
331
16
  1
Color_5
330
EA5
 90
        8
 62
     5
370
    -3
331
16
  1
Color_5
330
FFA
 90
        8
 62
   230
370
    -3
331
16
  1
Color_230
330
FFB
 90
        8
 62
   230
370
    -3
331
16
  1
Color_230
330
FFC
 90
        8
 62
   230
370
    -3
331
16
  1
Color_230
330
FFD
 90
        8
 62
   230
370
    -3
331
16
  1
Color_230
330
182C
 90
        8
 62
     4
370
    -3
331
16
  1
Color_4
330
20B2
 90
        8
 62
     7
370
    -3
331
16
  1
Color_7
330
2237
 90
        8
 62
     4
370
    -3
331
16
  1
Color_4
330
23DB
 90
        8
 62
     7
370
    -3
331
16
  1
Color_7
330
27A9
 90
        8
 62
     4
370
    -3
331
16
  1
Color_4
  0
XRECORD
  5
1DB3
102
{ACAD_REACTORS
330
BF
102
}
330
BF
100
AcDbXrecord
280
     1
 91
     1023
301

290
     0
302
floor 0 zones
330
10
 90
        9
 62
     7
370
    -3
331
16
  1
Color_7
330
C1
 90
        8
 62
   215
370
    -3
331
16
  1
Color_215
330
9C2
 90
        9
 62
   220
370
    -3
331
16
  1
Color_220
330
C5A
 90
        8
 62
   230
370
    -3
331
16
  1
Color_230
330
C5B
 90
        8
 62
   190
370
    -3
331
16
  1
Color_190
330
C70
 90
        9
 62
     7
370
    -3
331
16
  1
Color_7
330
C71
 90
        9
 62
     7
370
    -3
331
16
  1
Color_7
330
C72
 90
        9
 62
     7
370
    -3
331
16
  1
Color_7
330
E36
 90
        8
 62
     2
370
    -3
331
16
  1
Color_2
330
E37
 90
        8
 62
     2
370
    -3
331
16
  1
Color_2
330
E38
 90
        8
 62
     7
370
    -3
331
16
  1
Color_7
330
E9A
 90
        8
 62
     7
370
    -3
331
16
  1
Color_7
330
EA2
 90
        8
 62
     5
370
    -3
331
16
  1
Color_5
330
EA3
 90
        8
 62
     5
370
    -3
331
16
  1
Color_5
330
EA4
 90
        8
 62
     5
370
    -3
331
16
  1
Color_5
330
EA5
 90
        8
 62
     5
370
    -3
331
16
  1
Color_5
330
FFA
 90
        8
 62
   230
370
    -3
331
16
  1
Color_230
330
FFB
 90
        8
 62
   230
370
    -3
331
16
  1
Color_230
330
FFC
 90
        8
 62
   230
370
    -3
331
16
  1
Color_230
330
FFD
 90
        8
 62
   230
370
    -3
331
16
  1
Color_230
330
182C
 90
        8
 62
     4
370
    -3
331
16
  1
Color_4
330
20B2
 90
        8
 62
     7
370
    -3
331
16
  1
Color_7
  0
XRECORD
  5
1AE7
102
{ACAD_REACTORS
330
BF
102
}
330
BF
100
AcDbXrecord
280
     1
 91
     1023
301

290
     0
302
floor 0 keepouts
330
10
 90
        9
 62
     7
370
    -3
331
16
  1
Color_7
330
C1
 90
        8
 62
   215
370
    -3
331
16
  1
Color_215
330
9C2
 90
        8
 62
   220
370
    -3
331
16
  1
Color_220
330
C5A
 90
        8
 62
   230
370
    -3
331
16
  1
Color_230
330
C5B
 90
        8
 62
   190
370
    -3
331
16
  1
Color_190
330
C70
 90
        9
 62
     7
370
    -3
331
16
  1
Color_7
330
C71
 90
        9
 62
     7
370
    -3
331
16
  1
Color_7
330
C72
 90
        9
 62
     7
370
    -3
331
16
  1
Color_7
330
E36
 90
        8
 62
     2
370
    -3
331
16
  1
Color_2
330
E37
 90
        8
 62
     2
370
    -3
331
16
  1
Color_2
330
E38
 90
        8
 62
     7
370
    -3
331
16
  1
Color_7
330
E9A
 90
        8
 62
     7
370
    -3
331
16
  1
Color_7
330
EA2
 90
        8
 62
     5
370
    -3
331
16
  1
Color_5
330
EA3
 90
        8
 62
     5
370
    -3
331
16
  1
Color_5
330
EA4
 90
        8
 62
     5
370
    -3
331
16
  1
Color_5
330
EA5
 90
        8
 62
     5
370
    -3
331
16
  1
Color_5
330
FFA
 90
        8
 62
   230
370
    -3
331
16
  1
Color_230
330
FFB
 90
        8
 62
   230
370
    -3
331
16
  1
Color_230
330
FFC
 90
        8
 62
   230
370
    -3
331
16
  1
Color_230
330
FFD
 90
        8
 62
   230
370
    -3
331
16
  1
Color_230
330
182C
 90
        8
 62
     4
370
    -3
331
16
  1
Color_4
330
20B2
 90
        8
 62
     7
370
    -3
331
16
  1
Color_7
  0
XRECORD
  5
EAD
102
{ACAD_REACTORS
330
BF
102
}
330
BF
100
AcDbXrecord
280
     1
 91
     1023
301

290
     0
302
floor 0 gps
330
10
 90
        9
 62
     7
370
    -3
331
16
  1
Color_7
330
C1
 90
        8
 62
   215
370
    -3
331
16
  1
Color_215
330
9C2
 90
        8
 62
   220
370
    -3
331
16
  1
Color_220
330
C5A
 90
        8
 62
   230
370
    -3
331
16
  1
Color_230
330
C5B
 90
        8
 62
   190
370
    -3
331
16
  1
Color_190
330
C70
 90
        9
 62
     7
370
    -3
331
16
  1
Color_7
330
C71
 90
        9
 62
     7
370
    -3
331
16
  1
Color_7
330
C72
 90
        9
 62
     7
370
    -3
331
16
  1
Color_7
330
E36
 90
        8
 62
     2
370
    -3
331
16
  1
Color_2
330
E37
 90
        8
 62
     2
370
    -3
331
16
  1
Color_2
330
E38
 90
        8
 62
     2
370
    -3
331
16
  1
Color_2
330
E9A
 90
        8
 62
     7
370
    -3
331
16
  1
Color_7
330
EA2
 90
        8
 62
     5
370
    -3
331
16
  1
Color_5
330
EA3
 90
        8
 62
     5
370
    -3
331
16
  1
Color_5
330
EA4
 90
        8
 62
     5
370
    -3
331
16
  1
Color_5
330
EA5
 90
        8
 62
     5
370
    -3
331
16
  1
Color_5
  0
XRECORD
  5
C97
102
{ACAD_REACTORS
330
BF
102
}
330
BF
100
AcDbXrecord
280
     1
 91
     1023
301

290
     0
302
floor 1 walls
330
10
 90
        8
 62
     7
370
    -3
331
16
  1
Color_7
330
C1
 90
        8
 62
   215
370
    -3
331
16
  1
Color_215
330
9C2
 90
        8
 62
   220
370
    -3
331
16
  1
Color_220
330
C5A
 90
        8
 62
   230
370
    -3
331
16
  1
Color_230
330
C5B
 90
        8
 62
   190
370
    -3
331
16
  1
Color_190
330
C70
 90
        8
 62
     7
370
    -3
331
16
  1
Color_7
330
C71
 90
        8
 62
     7
370
    -3
331
16
  1
Color_7
330
C72
 90
        8
 62
     7
370
    -3
331
16
  1
Color_7
330
E36
 90
        8
 62
     2
370
    -3
331
16
  1
Color_2
330
E37
 90
        8
 62
     2
370
    -3
331
16
  1
Color_2
330
E38
 90
        8
 62
     2
370
    -3
331
16
  1
Color_2
330
E9A
 90
        8
 62
     7
370
    -3
331
16
  1
Color_7
330
EA2
 90
        8
 62
     5
370
    -3
331
16
  1
Color_5
330
EA3
 90
        8
 62
     5
370
    -3
331
16
  1
Color_5
330
EA4
 90
        8
 62
     5
370
    -3
331
16
  1
Color_5
330
EA5
 90
        8
 62
     5
370
    -3
331
16
  1
Color_5
330
FFA
 90
        8
 62
   230
370
    -3
331
16
  1
Color_230
330
FFB
 90
        8
 62
   230
370
    -3
331
16
  1
Color_230
330
FFC
 90
        8
 62
   230
370
    -3
331
16
  1
Color_230
330
FFD
 90
        8
 62
   230
370
    -3
331
16
  1
Color_230
  0
XRECORD
  5
220F
102
{ACAD_REACTORS
330
BF
102
}
330
BF
100
AcDbXrecord
280
     1
 91
     1023
301

290
     0
302
floor 0 zones
330
10
 90
        9
 62
     7
370
    -3
331
16
  1
Color_7
330
C1
 90
        8
 62
   215
370
    -3
331
16
  1
Color_215
330
9C2
 90
        8
 62
   220
370
    -3
331
16
  1
Color_220
330
C5A
 90
        8
 62
   230
370
    -3
331
16
  1
Color_230
330
C5B
 90
        8
 62
   190
370
    -3
331
16
  1
Color_190
330
C70
 90
        9
 62
     7
370
    -3
331
16
  1
Color_7
330
C71
 90
        9
 62
     7
370
    -3
331
16
  1
Color_7
330
C72
 90
        9
 62
     7
370
    -3
331
16
  1
Color_7
330
E36
 90
        8
 62
     2
370
    -3
331
16
  1
Color_2
330
E37
 90
        8
 62
     2
370
    -3
331
16
  1
Color_2
330
E38
 90
        8
 62
     7
370
    -3
331
16
  1
Color_7
330
E9A
 90
        8
 62
     7
370
    -3
331
16
  1
Color_7
330
EA2
 90
        8
 62
     5
370
    -3
331
16
  1
Color_5
330
EA3
 90
        8
 62
     5
370
    -3
331
16
  1
Color_5
330
EA4
 90
        8
 62
     5
370
    -3
331
16
  1
Color_5
330
EA5
 90
        8
 62
     5
370
    -3
331
16
  1
Color_5
330
FFA
 90
        8
 62
   230
370
    -3
331
16
  1
Color_230
330
FFB
 90
        8
 62
   230
370
    -3
331
16
  1
Color_230
330
FFC
 90
        8
 62
   230
370
    -3
331
16
  1
Color_230
330
FFD
 90
        8
 62
   230
370
    -3
331
16
  1
Color_230
330
182C
 90
        8
 62
     4
370
    -3
331
16
  1
Color_4
330
20B2
 90
        8
 62
     7
370
    -3
331
16
  1
Color_7
  0
XRECORD
  5
2236
102
{ACAD_REACTORS
330
BF
102
}
330
BF
100
AcDbXrecord
280
     1
 91
     1023
301

290
     0
302
floor 1 routes
330
10
 90
        9
 62
     7
370
    -3
331
16
  1
Color_7
330
C1
 90
        8
 62
   215
370
    -3
331
16
  1
Color_215
330
9C2
 90
        8
 62
   220
370
    -3
331
16
  1
Color_220
330
C5A
 90
        8
 62
   230
370
    -3
331
16
  1
Color_230
330
C5B
 90
        8
 62
   190
370
    -3
331
16
  1
Color_190
330
C70
 90
        9
 62
     7
370
    -3
331
16
  1
Color_7
330
C71
 90
        9
 62
     7
370
    -3
331
16
  1
Color_7
330
C72
 90
        9
 62
     7
370
    -3
331
16
  1
Color_7
330
E36
 90
        8
 62
     2
370
    -3
331
16
  1
Color_2
330
E37
 90
        8
 62
     2
370
    -3
331
16
  1
Color_2
330
E38
 90
        8
 62
     7
370
    -3
331
16
  1
Color_7
330
E9A
 90
        8
 62
     7
370
    -3
331
16
  1
Color_7
330
EA2
 90
        8
 62
     5
370
    -3
331
16
  1
Color_5
330
EA3
 90
        8
 62
     5
370
    -3
331
16
  1
Color_5
330
EA4
 90
        8
 62
     5
370
    -3
331
16
  1
Color_5
330
EA5
 90
        8
 62
     5
370
    -3
331
16
  1
Color_5
330
FFA
 90
        8
 62
   230
370
    -3
331
16
  1
Color_230
330
FFB
 90
        8
 62
   230
370
    -3
331
16
  1
Color_230
330
FFC
 90
        8
 62
   230
370
    -3
331
16
  1
Color_230
330
FFD
 90
        8
 62
   230
370
    -3
331
16
  1
Color_230
330
182C
 90
        8
 62
     4
370
    -3
331
16
  1
Color_4
330
20B2
 90
        8
 62
     7
370
    -3
331
16
  1
Color_7
  0
XRECORD
  5
2268
102
{ACAD_REACTORS
330
BF
102
}
330
BF
100
AcDbXrecord
280
     1
 91
     1023
301

290
     0
302
floor 1 routes
330
10
 90
        9
 62
     7
370
    -3
331
16
  1
Color_7
330
C1
 90
        8
 62
   215
370
    -3
331
16
  1
Color_215
330
9C2
 90
        8
 62
   220
370
    -3
331
16
  1
Color_220
330
C5A
 90
        8
 62
   230
370
    -3
331
16
  1
Color_230
330
C5B
 90
        8
 62
   190
370
    -3
331
16
  1
Color_190
330
C70
 90
        9
 62
     7
370
    -3
331
16
  1
Color_7
330
C71
 90
        9
 62
     7
370
    -3
331
16
  1
Color_7
330
C72
 90
        9
 62
     7
370
    -3
331
16
  1
Color_7
330
E36
 90
        8
 62
     2
370
    -3
331
16
  1
Color_2
330
E37
 90
        8
 62
     2
370
    -3
331
16
  1
Color_2
330
E38
 90
        8
 62
     7
370
    -3
331
16
  1
Color_7
330
E9A
 90
        8
 62
     7
370
    -3
331
16
  1
Color_7
330
EA2
 90
        8
 62
     5
370
    -3
331
16
  1
Color_5
330
EA3
 90
        8
 62
     5
370
    -3
331
16
  1
Color_5
330
EA4
 90
        8
 62
     5
370
    -3
331
16
  1
Color_5
330
EA5
 90
        8
 62
     5
370
    -3
331
16
  1
Color_5
330
FFA
 90
        8
 62
   230
370
    -3
331
16
  1
Color_230
330
FFB
 90
        8
 62
   230
370
    -3
331
16
  1
Color_230
330
FFC
 90
        8
 62
   230
370
    -3
331
16
  1
Color_230
330
FFD
 90
        8
 62
   230
370
    -3
331
16
  1
Color_230
330
182C
 90
        8
 62
     4
370
    -3
331
16
  1
Color_4
330
20B2
 90
        8
 62
     7
370
    -3
331
16
  1
Color_7
330
2237
 90
        8
 62
     4
370
    -3
331
16
  1
Color_4
  0
XRECORD
  5
227A
102
{ACAD_REACTORS
330
BF
102
}
330
BF
100
AcDbXrecord
280
     1
 91
     1023
301

290
     0
302
floor 0 routes
330
10
 90
        9
 62
     7
370
    -3
331
16
  1
Color_7
330
C1
 90
        8
 62
   215
370
    -3
331
16
  1
Color_215
330
9C2
 90
        8
 62
   220
370
    -3
331
16
  1
Color_220
330
C5A
 90
        8
 62
   230
370
    -3
331
16
  1
Color_230
330
C5B
 90
        8
 62
   190
370
    -3
331
16
  1
Color_190
330
C70
 90
        9
 62
     7
370
    -3
331
16
  1
Color_7
330
C71
 90
        9
 62
     7
370
    -3
331
16
  1
Color_7
330
C72
 90
        9
 62
     7
370
    -3
331
16
  1
Color_7
330
E36
 90
        8
 62
     2
370
    -3
331
16
  1
Color_2
330
E37
 90
        8
 62
     2
370
    -3
331
16
  1
Color_2
330
E38
 90
        8
 62
     7
370
    -3
331
16
  1
Color_7
330
E9A
 90
        8
 62
     7
370
    -3
331
16
  1
Color_7
330
EA2
 90
        8
 62
     5
370
    -3
331
16
  1
Color_5
330
EA3
 90
        8
 62
     5
370
    -3
331
16
  1
Color_5
330
EA4
 90
        8
 62
     5
370
    -3
331
16
  1
Color_5
330
EA5
 90
        8
 62
     5
370
    -3
331
16
  1
Color_5
330
FFA
 90
        8
 62
   230
370
    -3
331
16
  1
Color_230
330
FFB
 90
        8
 62
   230
370
    -3
331
16
  1
Color_230
330
FFC
 90
        8
 62
   230
370
    -3
331
16
  1
Color_230
330
FFD
 90
        8
 62
   230
370
    -3
331
16
  1
Color_230
330
182C
 90
        8
 62
     4
370
    -3
331
16
  1
Color_4
330
20B2
 90
        8
 62
     7
370
    -3
331
16
  1
Color_7
330
2237
 90
        8
 62
     4
370
    -3
331
16
  1
Color_4
  0
DICTIONARY
  5
28C5
330
3C
100
AcDbDictionary
280
     1
281
     1
  3
ACAD_ROUNDTRIP_2008_TABLESTYLE_CELLSTYLEMAP
360
28C6
  0
CELLSTYLEMAP
  5
28C6
102
{ACAD_REACTORS
330
28C5
102
}
330
28C5
100
AcDbCellStyleMap
 90
        3
300
CELLSTYLE
  1
TABLEFORMAT_BEGIN
 90
        5
170
     1
 91
        0
 92
    32768
 62
   257
 93
        1
300
CONTENTFORMAT
  1
CONTENTFORMAT_BEGIN
 90
        0
 91
        0
 92
      512
 93
        0
300

 40
0.0
140
1.0
 94
        5
 62
     0
340
11
144
6.0
309
CONTENTFORMAT_END
171
     1
301
MARGIN
  1
CELLMARGIN_BEGIN
 40
1.5
 40
1.5
 40
1.5
 40
1.5
 40
0.18
 40
0.18
309
CELLMARGIN_END
 94
        6
 95
        1
302
GRIDFORMAT
  1
GRIDFORMAT_BEGIN
 90
        0
 91
        1
 62
     0
 92
       -2
340
0
 93
        0
 40
0.045
309
GRIDFORMAT_END
 95
        2
302
GRIDFORMAT
  1
GRIDFORMAT_BEGIN
 90
        0
 91
        1
 62
     0
 92
       -2
340
0
 93
        0
 40
0.045
309
GRIDFORMAT_END
 95
        4
302
GRIDFORMAT
  1
GRIDFORMAT_BEGIN
 90
        0
 91
        1
 62
     0
 92
       -2
340
0
 93
        0
 40
0.045
309
GRIDFORMAT_END
 95
        8
302
GRIDFORMAT
  1
GRIDFORMAT_BEGIN
 90
        0
 91
        1
 62
     0
 92
       -2
340
0
 93
        0
 40
0.045
309
GRIDFORMAT_END
 95
       16
302
GRIDFORMAT
  1
GRIDFORMAT_BEGIN
 90
        0
 91
        1
 62
     0
 92
       -2
340
0
 93
        0
 40
0.045
309
GRIDFORMAT_END
 95
       32
302
GRIDFORMAT
  1
GRIDFORMAT_BEGIN
 90
        0
 91
        1
 62
     0
 92
       -2
340
0
 93
        0
 40
0.045
309
GRIDFORMAT_END
309
TABLEFORMAT_END
  1
CELLSTYLE_BEGIN
 90
        1
 91
        1
300
_TITLE
309
CELLSTYLE_END
300
CELLSTYLE
  1
TABLEFORMAT_BEGIN
 90
        5
170
     1
 91
        0
 92
        0
 62
   257
 93
        1
300
CONTENTFORMAT
  1
CONTENTFORMAT_BEGIN
 90
        0
 91
        0
 92
      512
 93
        0
300

 40
0.0
140
1.0
 94
        5
 62
     0
340
11
144
4.5
309
CONTENTFORMAT_END
171
     1
301
MARGIN
  1
CELLMARGIN_BEGIN
 40
1.5
 40
1.5
 40
1.5
 40
1.5
 40
0.18
 40
0.18
309
CELLMARGIN_END
 94
        6
 95
        1
302
GRIDFORMAT
  1
GRIDFORMAT_BEGIN
 90
        0
 91
        1
 62
     0
 92
       -2
340
0
 93
        0
 40
0.045
309
GRIDFORMAT_END
 95
        2
302
GRIDFORMAT
  1
GRIDFORMAT_BEGIN
 90
        0
 91
        1
 62
     0
 92
       -2
340
0
 93
        0
 40
0.045
309
GRIDFORMAT_END
 95
        4
302
GRIDFORMAT
  1
GRIDFORMAT_BEGIN
 90
        0
 91
        1
 62
     0
 92
       -2
340
0
 93
        0
 40
0.045
309
GRIDFORMAT_END
 95
        8
302
GRIDFORMAT
  1
GRIDFORMAT_BEGIN
 90
        0
 91
        1
 62
     0
 92
       -2
340
0
 93
        0
 40
0.045
309
GRIDFORMAT_END
 95
       16
302
GRIDFORMAT
  1
GRIDFORMAT_BEGIN
 90
        0
 91
        1
 62
     0
 92
       -2
340
0
 93
        0
 40
0.045
309
GRIDFORMAT_END
 95
       32
302
GRIDFORMAT
  1
GRIDFORMAT_BEGIN
 90
        0
 91
        1
 62
     0
 92
       -2
340
0
 93
        0
 40
0.045
309
GRIDFORMAT_END
309
TABLEFORMAT_END
  1
CELLSTYLE_BEGIN
 90
        2
 91
        1
300
_HEADER
309
CELLSTYLE_END
300
CELLSTYLE
  1
TABLEFORMAT_BEGIN
 90
        5
170
     1
 91
        0
 92
        0
 62
   257
 93
        1
300
CONTENTFORMAT
  1
CONTENTFORMAT_BEGIN
 90
        0
 91
        0
 92
      512
 93
        0
300

 40
0.0
140
1.0
 94
        2
 62
     0
340
11
144
4.5
309
CONTENTFORMAT_END
171
     1
301
MARGIN
  1
CELLMARGIN_BEGIN
 40
1.5
 40
1.5
 40
1.5
 40
1.5
 40
0.18
 40
0.18
309
CELLMARGIN_END
 94
        6
 95
        1
302
GRIDFORMAT
  1
GRIDFORMAT_BEGIN
 90
        0
 91
        1
 62
     0
 92
       -2
340
0
 93
        0
 40
0.045
309
GRIDFORMAT_END
 95
        2
302
GRIDFORMAT
  1
GRIDFORMAT_BEGIN
 90
        0
 91
        1
 62
     0
 92
       -2
340
0
 93
        0
 40
0.045
309
GRIDFORMAT_END
 95
        4
302
GRIDFORMAT
  1
GRIDFORMAT_BEGIN
 90
        0
 91
        1
 62
     0
 92
       -2
340
0
 93
        0
 40
0.045
309
GRIDFORMAT_END
 95
        8
302
GRIDFORMAT
  1
GRIDFORMAT_BEGIN
 90
        0
 91
        1
 62
     0
 92
       -2
340
0
 93
        0
 40
0.045
309
GRIDFORMAT_END
 95
       16
302
GRIDFORMAT
  1
GRIDFORMAT_BEGIN
 90
        0
 91
        1
 62
     0
 92
       -2
340
0
 93
        0
 40
0.045
309
GRIDFORMAT_END
 95
       32
302
GRIDFORMAT
  1
GRIDFORMAT_BEGIN
 90
        0
 91
        1
 62
     0
 92
       -2
340
0
 93
        0
 40
0.045
309
GRIDFORMAT_END
309
TABLEFORMAT_END
  1
CELLSTYLE_BEGIN
 90
        3
 91
        2
300
_DATA
309
CELLSTYLE_END
  0
ENDSEC
  0
EOF
